PrimaNota.ru - самый крупный в мире бесплатный архив песенных текстов, аккордов, табулатур и нот


Joshua Radin - Everythingll Be Alright - таба, видео

Регистрация Запомнить меня
Войти через:  Facebook Google Twitter Vk Yandex Mail.ru

Joshua Radin - Everythingll Be Alright - таба, видео

Печатать
Просмотров: 122
Tabbed by: Travis3826
Email: travis3826@hotmail.com

This is a pretty simple song. I tried to put the words under the right chords.
The whole song is just the intro and then repeat the verse, chorus, and interlude 
four times.
If you want you can play the hammer-ons throughout the song.
It is just easier to sing along when the guitar is easier.
Good Luck.


Tuning: Standard - CAPO 4th fret

Intro:
     C              G         D             Em7
e|---0---0-0----0-0---3---3-3-2---2-2---2-3---3------------------------------|
B|---1---1-1----1-1---3---3-3-3---3-3---3-3---3------------------------------|
G|---0---0-0----0-0---0---0-0-2---2-0h2-2-2---0------------------------------|
D|---2---2-0h2--2-2---0---0-0-0---0-0---0-0---2------------------------------|
A|---3---3-3----3-3---2---2-2-----------------2------------------------------|
E|------------------3-3---3-3---------------0-0------------------------------|

     C              G         D             G
e|---0---0-0----0-0---3---3-3-2---2-2---2-3---3------------------------------|
B|---1---1-1----1-1---3---3-3-3---3-3---3-3---3------------------------------|
G|---0---0-0----0-0---0---0-0-2---2-0h2-2-2---0------------------------------|
D|---2---2-0h2--2-2---0---0-0-0---0-0---0-0---0------------------------------|
A|---3---3-3----3-3---2---2-2-----------------2------------------------------|
E|------------------3-3---3-3---------------3-3------------------------------|

Verse:
     C              G         D             Em7
e|---0---0-0----0-0---3---3-3-2---2-2---2-3---3------------------------------|
B|---1---1-1----1-1---3---3-3-3---3-3---3-3---3------------------------------|
G|---0---0-0----0-0---0---0-0-2---2-2---2-2---0------------------------------|
D|---2---2-2----2-2---0---0-0-0---0-0---0-0---2------------------------------|
A|---3---3-3----3-3---2---2-2-----------------2------------------------------|
E|------------------3-3---3-3---------------0-0------------------------------|
      Way           down in   New York      Town

     C              G         D             Em7
e|---0---0-0----0-0---3---3-3-2---2-2---2-3---3------------------------------|
B|---1---1-1----1-1---3---3-3-3---3-3---3-3---3------------------------------|
G|---0---0-0----0-0---0---0-0-2---2-2---2-2---0------------------------------|
D|---2---2-2----2-2---0---0-0-0---0-0---0-0---2------------------------------|
A|---3---3-3----3-3---2---2-2-----------------2------------------------------|
E|------------------3-3---3-3---------------0-0------------------------------|
     Thinking about the way she loved me

     C              G         D             Em7
e|---0---0-0----0-0---3---3-3-2---2-2---2-3---3------------------------------|
B|---1---1-1----1-1---3---3-3-3---3-3---3-3---3------------------------------|
G|---0---0-0----0-0---0---0-0-2---2-2---2-2---0------------------------------|
D|---2---2-2----2-2---0---0-0-0---0-0---0-0---2------------------------------|
A|---3---3-3----3-3---2---2-2-----------------2------------------------------|
E|------------------3-3---3-3---------------0-0------------------------------|
     There's a hole in my pocket about her size

Chorus:
     C              G         D             G
e|---0---0-0----0-0---3---3-3-2---2-2---2-3---3------------------------------|
B|---1---1-1----1-1---3---3-3-3---3-3---3-3---3------------------------------|
G|---0---0-0----0-0---0---0-0-2---2-2---2-2---0------------------------------|
D|---2---2-2----2-2---0---0-0-0---0-0---0-0---0------------------------------|
A|---3---3-3----3-3---2---2-2-----------------2------------------------------|
E|------------------3-3---3-3---------------3-3------------------------------|
     But I think everything is gonna be alright

     C              G         D             G
e|---0---0-0----0-0---3---3-3-2---2-2---2-3---3------------------------------|
B|---1---1-1----1-1---3---3-3-3---3-3---3-3---3------------------------------|
G|---0---0-0----0-0---0---0-0-2---2-2---2-2---0------------------------------|
D|---2---2-2----2-2---0---0-0-0---0-0---0-0---0------------------------------|
A|---3---3-3----3-3---2---2-2-----------------2------------------------------|
E|------------------3-3---3-3---------------3-3------------------------------|
     Yes I hope everything is gonna be alright

Interlude 1:
     C              G         D             Em7
e|---0---0-0----0-0---3---3-3-2---2-2---2-3---3------------------------------|
B|---1---1-1----1-1---3---3-3-3---3-3---3-3---3------------------------------|
G|---0---0-0----0-0---0---0-0-2---2-0h2-2-2---0------------------------------|
D|---2---2-0h2--2-2---0---0-0-0---0-0---0-0---2------------------------------|
A|---3---3-3----3-3---2---2-2-----------------2------------------------------|
E|------------------3-3---3-3---------------0-0------------------------------|

     C              G         D
e|---0---0-0----0-0---3---3-3-2---2-2---2-3-2-2---2--------------------------|
B|---1---1-1----1-1---3---3-3-3---3-3---3-3-3-3---3--------------------------|
G|---0---0-0----0-0---0---0-0-2---2-0h2-2-2-2-0h2-2--------------------------|
D|---2---2-0h2--2-2---0---0-0-0---0-0---0-0-0-0---0--------------------------|
A|---3---3-3----3-3---2---2-2------------------------------------------------|
E|------------------3-3---3-3------------------------------------------------|

Interlude 2: Same as Intro


The smiling face straight in L.A.
The gifts are found at the bar
But I wish my car could drive to her tonight
Then I'd know everything is gonna be alright
Yes, Then I'd know it'll be alright

Interlude 2

The rain in New Orleans forgot to end
But the mouths of the people are dry
And we watch and wait and do nothing but sigh
And hope that everything is gonna be alright
But I don't know if it'll be alright

Interlude 1

But I look at you warm in your dream
While your mobile dances above
And I think to myself what a beautiful night
And I know everything is gonna be alright
Yes now I know It'll be alright
Добавлено: 19.08.2013
Другие материалы по этой песне:
  • Аккорды и текст

Страница создана 19.08.2013
http://primanota.ru/joshua-radin/everythingll-be-alright-chords.htm
Привет, Гость.
Предлагаем пройти революционный курс по гитаре.
Подарок от PrimaNota.Ru, забирай!