PrimaNota.ru - самый крупный в мире бесплатный архив песенных текстов, аккордов, табулатур и нот


Joseph Arthur - Honey And The Moon - аккорды и текст, таба, видео

Регистрация Запомнить меня
Войти через:  Facebook Google Twitter Vk Yandex Mail.ru

Joseph Arthur - Honey And The Moon - аккорды и текст, таба, видео

Печатать
Просмотров: 314
Авторы музыки: Joseph Arthur
Авторы текста: Joseph Arthur
Honey And The Moon
Joseph Arthur
super song off the O.C soundtrack
Tuning:standard

VERSE:
    C       G        F        G        Am             Em
e|--0-------3--------1--------3---------0-------------0--------------------|
B|--1-------3--------1--------3---------1-------------0--------------------|
G|--0-------0--------2--------4---------2-------------0--------------------|
D|--2-------0--------3--------5---------2-------------2--------------------|
A|--3-------2--------3--------5---------0-------------2--------------------|
E|--0-------3--------1--------3---------0-------------0--------------------|

CHORUS:
     F           G        Am
e|---1-----------3---------0-----------|
B|---1-----------3---------1-----------|
G|---2-----------4---------2-----------|
D|---3-----------5---------2-----------|X3
A|---3-----------5---------0-----------|
E|---1-----------3---------0-----------|
..right       now         everything you want it wrong
..and right now the sun is trying to steal the moon
..and right now i wish i could follow you.....

    Em                   G                  C
e|---0-------------------3------------------0------------------------------|
B|---0-------------------3------------------1------------------------------|
G|---0-------------------4------------------0------------------------------|
D|---2-------------------5------------------2------------------------------|
A|---2-------------------5------------------3------------------------------|
E|---0-------------------3------------------0------------------------------|
...to the shores      of freedom          where no one lives


repeat verse

C                   G
Don't know why I'm still afraid        
F                   G                Am
If you weren't real I would make you up
Em
now
C                    G              
I wish that I could follow through
F                G               
I know that your love is true
      Am
And deep
  Em
As the sea
F          G
But right now
Am
Everything you want is wrong,
F          G
And right now
Am
All your dreams are waking up,
F          G
And right now
Am
I wish I could follow you
Em
To the shores
G
Of freedom,
C
Where no one lives.


(REPEAT AS ABOVE)

Remember when we first met
And everything was still a bet
In love's game
You would call; I'd call you back
And then I'd leave
A message
On your answering machine

But right now
Everything is turning blue,
And right now
The sun is trying to kill the moon,
And right now
I wish I could follow you
To the shores
Of freedom,
Where no one lives

Freedom
Run away tonight
Freedom, freedom
Run away
Run away tonight

We're made out of blood and rust
Looking for someone to trust
Without 
A fight
I think that you came too soon
You're the honey and the moon
That lights
Up my night


But right now
Everything you want is wrong,
And right now
All your dreams are waking up,
And right now
I wish that I could follow you
To the shores
Of freedom
Where no one lives

Freedom
Run away tonight
Freedom freedom
Run away
Run away tonight

We got too much time to kill
Like pigeons on my windowsill
We hang around

Ever since I've been with you
You hold me up
All the time I've falling down

But right now
Everything is turning blue,
And right now
The sun is trying to kill the moon,
And right now
I wish I could follow you
To the shores
Of freedom
Where no one lives
Добавлено: 25.03.2012
Другие материалы по этой песне:

Страница создана 05.03.2012
http://primanota.ru/joseph-arthur/honey-and-the-moon-chords.htm
Привет, Гость.
Предлагаем пройти революционный курс по гитаре.
Подарок от PrimaNota.Ru, забирай!