PrimaNota.ru - самый крупный в мире бесплатный архив песенных текстов, аккордов, табулатур и нот


Joseph Arthur - Drive - аккорды и текст, видео

Регистрация Запомнить меня
Войти через:  Facebook Google Twitter Vk Yandex Mail.ru

Joseph Arthur - Drive - аккорды и текст, видео

Печатать
Просмотров: 100
Drive
Joseph Arthur
Song: Drive
Artist: Joseph Arthur
Album: Temporary People
Tuning: EADGBe
Tabbed by Audiophile267


No Capo, Chords required:

D  (xx0232)
Am (x02210)
C  (x32010)
G* (320000)
F  (x33210)


Intro & Verse strumming (suggestion): 
(PM: Palm Mute)

    PM  PM  PM  
e|--2---2---2---2---0---0---0--------------------------------|
B|--3---3---3---3---1---1---1---1--1--1--1--1--1--1--1--1--1-|
G|--2---2---2---2---2---0---2---2--2--2--0--0--0--0--0--0--0-|
D|--0---0---0---0---2---2---2---2--2--2--2--2--2--2--2--2--2-|
A|------------------0---0---0---0--0--0--3--3--3--3--3--3--3-|
E|-----------------------------------------------------------|

e|-----------------------|
B|-----------------------|
G|--0--0--0--0--0--0--0--|
D|--0--0--0--0--0--0--0--|
A|--2--2--0--2--0--2--0--|
E|--3--3--3--3--3--3--3--|   


Verse:

D              Am
Did we go too far
C                 G*
To come back here again?
D                    Am
Don't know who you are
C                      G*       
But I know, where you've been
D              Am
In the wild wind
C                      G* 
That comes with the setting sun
D                     Am
When you lose your skin
C                     G*
Where all the shadows run


Chorus:

F
Where we go
C
Only you can drive
F
People we know
C                G*
Almost have died


And so on... enjoy... 

Добавлено: 06.06.2012
Другие материалы по этой песне:
  • Аккорды и текст

Страница создана 06.06.2012
http://primanota.ru/joseph-arthur/drive-chords.htm
Привет, Гость.
Предлагаем пройти революционный курс по гитаре.
Подарок от PrimaNota.Ru, забирай!