PrimaNota.ru - самый крупный в мире бесплатный архив песенных текстов, аккордов, табулатур и нот


Jose Feliciano - Nature Boy - таба, видео

Регистрация Запомнить меня
Войти через:  Facebook Google Twitter Vk Yandex Mail.ru

Jose Feliciano - Nature Boy - таба, видео

Печатать
Просмотров: 207
Nature Boy
Jose Feliciano
Arranged by Tony Crowley.  Midi available from crowley@macace.net
Tuning: EADGBE  Time Signature: 4/4. 4 bar intro. 
Rythym starts on 7th bar: boom chic  a boom chic boom chic

 |       |       |       |        |       |       |       |        
|0---2---3---0---5-------7-------|5-------------------------------|
|0---------------5---------------|5-------------------------------|
|0---------------5---------------|5-------------------------------|
|2---------------5---------------|5-------------------------------|
|2-------------------------------|--------------------------------|
|--------------------------------|--------------------------------|

 |       |       |       |        |       |       |       |        
|0---2---3---0---2-------3-------|2-------------------------------|
|0---------------2---------------|0-------------------------------|
|0---------------3---------------|2-------------------------------|
|2---------------2---------------|1-------------------------------|
|2-------------------------------|2-------------------------------|
|--------------------------------|--------------------------------|

 |       |       |       |        |       |       |       |        
|--------7---------------3-------|----0-------0-------0-------0---|
|0-------8---------------4-------|----0-------0-------0-------0---|
|--------8---------------4-------|----0-------0-------0-------0---|
|--------7---------------5-------|--------------------------------|
|--------------------------------|----------------2-------2-------|
|--------------------------------|0-------------------------------|

 |       |       |       |        |       |       |       |        
|----0-----------2---3---5---8---|7-----------3-------0-------0---|
|----1-------0---2-------4---7---|8-----------4-------0-------0---|
|----0-----------2-------5---8---|8-----------4-------0-------0---|
|----2-----------1-------4---7---|--------------------------------|
|0---------------2---------------|--------------------------------|
|--------------------------------|----------------0---------------|

 |       |       |       |        |       |       |       |        
|----0-------0-------0-----------|2---3---5---8---------------0---|
|----0-------0-------1-------0---|0-------4---7---0---------------|
|----0-------0-------0-----------|2-------5---8---0---------------|
|--------------------2-----------|1-------4---7---2---------------|
|2-------2-------0---------------|2---------------2---------------|
|--------------------------------|--------------------------------|

 |       |       |       |        |       |       |       |        
|--------------------------------|--------------------------------|
|------------4---------------3---|------------2---------------0---|
|--------4---------------4-------|--------2---------------0-------|
|----5---------------5-----------|----2---------------2-----------|
|6---------------5---------------|4---------------3---------------|
|--------------------------------|--------------------------------|

 |       |       |       |        |       |       |       |        
|7---5---------------2-------2---|----3-------3---2---------------|
|5-------5-----------0-------0---|----1-------1---0-------0-------|
|5-------------------2-------2---|----3-------3---2---------------|
|5-------------------1-------1---|----2-------2---1---------------|
|----------------2---------------|3-------3-------2---------------|
Добавлено: 21.05.2012
Другие материалы по этой песне:
  • Аккорды и текст

Страница создана 21.05.2012
http://primanota.ru/jose-feliciano/nature-boy-chords.htm
Привет, Гость.
Предлагаем пройти революционный курс по гитаре.
Подарок от PrimaNota.Ru, забирай!