PrimaNota.ru - самый крупный в мире бесплатный архив песенных текстов, аккордов, табулатур и нот


Jose Feliciano - Nono Hay Sombra Que Me Cubra - таба, видео

Регистрация Запомнить меня
Войти через:  Facebook Google Twitter Vk Yandex Mail.ru

Jose Feliciano - Nono Hay Sombra Que Me Cubra - таба, видео

Печатать
Просмотров: 103
Some chords:
Am7: x02010
Bm7: x24232
Eadd9: 024100 (can be replaced by E)
Abm7: 464444
F#m7: 24222
B11: x2x220 (can be replaced by B7)

* strum


INTRO:

e|---------0-----0---------2----2----------2-------2-------|
B|-------1-----1---------3------3--------0------0----------|
G|-----0-----0---------2------2--------2-----2-------------|
D|------------------0--------------------------------------|
A|--0-------------------------------2----------------------|
E|---------------------------------------------------------|

                                                              *
e|--0---0--2---4p0---------------0------0-------3p2-------2---0------|
B|----0------------3--0-------1------1--------------3---3-----0------|
G|--1------2----------------0------0----------2-------2-------1------|
D|-----------------------------------------0------------------4------|
A|-----------------------0------------------------------------2------|
E|--0-------------------------------------------------------0-0------|


e|---------0-----0-------------------------2-------2-------|
B|-------1-----1-------5----5------------0------0----------|
G|-----0-----0---------0----0----------2-----2-------------|
D|-------------------4---4----4----------------------------|
A|--0--------------5----------------2----------------------|
E|---------------------------------------------------------|

                                                              *
e|--0---0--2---4p0---------------0------0---------------------0------|
B|----0------------3--0-------1------1---------5----5---------0------|
G|--1------2----------------0------0-----------0----0---------1------|
D|-------------------------------------------4---4-----4------4------|
A|-----------------------0-----------------5------------------2------|
E|--0-------------------------------------------------------0-0------|

Am7               D           Bm7             E
   No hay sombra que me cubra,     y el fuego que me alumbra
Am7                   D                     Eadd9
tu lo encendiste por siempre y aprendí a querer.
Am7         D          Bm7          E
   Mi alma despertaste,   mis dudas tu borraste
Am7              D                 Eadd9   A  B
con tu forma de amar que pude entender.


(chorus)
E            A    Abm7          Dbm7
   Si alguna vez,    me dejaras de querer
F#m7           B11         E  A  B
    sabrás que yo me culparé
E              A   Abm7             Dbm7
   Y un nuevo amor     tan solo traerá dolor
  F#m7             B11       E
sabrás que a nadie más yo amaré.


SOLO:

e|-----------0-2-33333333333--2-3-2h3p2-2-0---------|
B|-----0-1-3-------------------------------3-3------|
G|---2----------------------------------------------|
D|--------------------------------------------------|
A|--------------------------------------------------|
E|--------------------------------------------------|

e|--------0-2-3-55555555-2h4444-- |---0-2-3p2p0---|
B|--0-1-3------------------------ |-------------3-|
G|------------------------------- |---------------| (8)
D|------------------------------- |---------------|
A|------------------------------- |---------------|
E|------------------------------- |---------------|


e|-0---2---4---5---7---4--5---7---4--5--7---4---5--7----------|
B|---0---0---0---0---0--0---0---0--0--0---0--0---0------------|
G|------------------------------------------------------------|
D|------------------------------------------------------------|
A|------------------------------------------------------------|
E|------------------------------------------------------------|

e|-12-12-12-12-12-12--10-10-10--8-8--7-7-7--5-5-4-5-7-7h8--7-7-----|
B|-----------------------------------------------------------------|
G|-12-12-12-12-12-12--11-11-11--9-9--7-7-7--5-5-4-5-7-7h9--7-7-----|
D|-----------------------------------------------------------------|
A|-----------------------------------------------------------------|
E|-----------------------------------------------------------------|

                                     *
e|-5--3-3--2-------------------------0--------|
B|-------------5--3h5p3--1--0----0---0--------|
G|-5--4-4--2------------------2------1--------|
D|-------------5--4h5p4--3--0----0---4--------|
A|----------------------------3------2--------|
E|-----------------------------------0--------|


..A  B..


(chorus)....

Am7               D           Bm7             E
   No hay sombra que me cubra,     y el fuego que me alumbra
Am7                   D                     Eadd9
tu lo encendiste por siempre y aprendí a querer.
                                  Am7      D                    Bm7
a querer, a soñar y a vivir, oye mira, si tu me alumbraste el camino,
  E                   Am7                D                      Eadd9
    con tu amor encontré mi destino, y yo soy muy feliz con tu amor,
                              Am7       D                Bm7
con tu amor, con tu amor, oye mira, por tí yo volví a la vida,
   E             Am7
y por ti yo curé mis heridas,
D                            Eadd9
   renació mi ilusión con tu amor, con tu amor,
Am7     D                Bm7
    sin ti yo no puedo vivir
        E               Am7
porque tu me has hecho reír,
        D                   Eadd9
tu me has hecho reír con tu amor, con tu amor, ooouuuuhhh eyyyy.


Am7               D           Bm7             E
   No hay sombra que me cubra,     y el fuego que me alumbra
Am7                   D                     Eadd9
tu lo encendiste por siempre y aprendí a querer  a querer yeah


OUTRO:
e|---------0-----0-------------------------2-------2-------|
B|-------1-----1-------5----5------------0------0----------|
G|-----0-----0---------0----0----------2-----2-------------|
D|-------------------4---4----4----------------------------|
A|--0--------------5----------------2----------------------|
E|---------------------------------------------------------|


e|--0---0--2---4p0---------------0------0--------3p2----------0------|
B|----0------------3--0-------1------1---------3----3---------0------|
G|--1------2----------------0------0---------2--------2-------1------|
D|-----------------------------------------0------------0-----4------|
A|-----------------------0------------------------------------2------|
E|--0---------------------------------------------------------0------|
Добавлено: 09.04.2012
Другие материалы по этой песне:
  • Аккорды и текст

Страница создана 09.04.2012
http://primanota.ru/jose-feliciano/nono-hay-sombra-que-me-cubra-chords.htm
Привет, Гость.
Предлагаем пройти революционный курс по гитаре.
Подарок от PrimaNota.Ru, забирай!