PrimaNota.ru - самый крупный в мире бесплатный архив песенных текстов, аккордов, табулатур и нот


Jon Schmidt - Pachelbel Meets U2 - таба, видео

Регистрация Запомнить меня
Войти через:  Facebook Google Twitter Vk Yandex Mail.ru

Jon Schmidt - Pachelbel Meets U2 - таба, видео

Печатать
Просмотров: 65
Уроки эстрадного вокала в Санкт-Петербурге
Pachelbel - Guitar 1:

Chords:
D A Bm F#m G D G A (repeat)


U2 - Guitar 1:

|-----------------------------------------------------------------------------------|
|----------7-8-7-----7-----7-----8-----7------5-5-7-5-3-----3--5/7-------5-5-7-5-3--|
|------7-9-------7-9---7-9----------------------------------------------------------|
|--7-9------------------------------------------------------------------------------|
|-----------------------------------------------------------------------------------|
|-----------------------------------------------------------------------------------|

|------------------5--------------------8------------------8---------|
|--3-5/7-------5-5---8-7-5-3------3-5-3---8-7-5------3-5-3---8-7-3---|
|--------------------------------------------------------------------|
|--------------------------------------------------------------------|
|--------------------------------------------------------------------|
|--------------------------------------------------------------------|

|--------8---------------------------------------|
|--3-5-3---8-7-5----5-5-7-5-3-3------5-5-7-5-3-3-|
|------------------------------------------------|
|------------------------------------------------|
|------------------------------------------------|
|------------------------------------------------|


U2 - Guitar 2:

|-------------------10---10---10-------------10---10---10-------------10---10---10-------|
|--10------8------8----8----8----7----8----8----8----8----7----8----8----8----8----7-----|
|------------------------------------------------------------------------------------7---|
|--------------------------------------------------------------------------------------5-|
|----------------------------------------------------------------------------------------|
|----------------------------------------------------------------------------------------|
Добавлено: 19.06.2016
Другие материалы по этой песне:
  • Аккорды и текст

Страница создана 19.06.2016
http://primanota.ru/jon-schmidt/pachelbel-meets-u2-chords.htm
Привет, Гость.
Предлагаем пройти революционный курс по гитаре.
Подарок от PrimaNota.Ru, забирай!