PrimaNota.ru - самый крупный в мире бесплатный архив песенных текстов, аккордов, табулатур и нот


Johnny Mandel - Suicide Is Painless - таба, видео

Регистрация Запомнить меня
Войти через:  Facebook Google Twitter Vk Yandex Mail.ru

Johnny Mandel - Suicide Is Painless - таба, видео

Печатать
Просмотров: 265
Уроки эстрадного вокала в Санкт-Петербурге
Авторы музыки: Johnny Mandel
Авторы текста: Mike Altman
E-------------------------5--3--2--3--2--3--2--0----|
B----3--2----3--2-----------------------------------|
G---4-------4---------------------------------------|
D--4-------4----------------------------------------|
A-2-------2-----------------------------------------|
e---------------------------------------------------|

E--2--0--2--0--2--0-------2--0-----0-----0----------|
B------------------3------------3-----3-----3--2----|
G---------------------------------------------------|
D---------------------------------------------------|
A---------------------------------------------------|
E---------------------------------------------------|

E-------------------0--2------------(2)-------------|
B----3--2--3--2--3----------------------------------|
G---------------------------------------------------|
D---------------------------------------------------|
A---------------------------------------------------|
e---------------------------------------------------|
Добавлено: 25.06.2012
Вам также может быть интересно:
Другие материалы по этой песне:

Страница создана 25.03.2012
http://primanota.ru/johnny-mandel/suicide-is-painless-chords.htm
Привет, Гость.
Предлагаем пройти революционный курс по гитаре.
Подарок от PrimaNota.Ru, забирай!