PrimaNota.ru - самый крупный в мире бесплатный архив песенных текстов, аккордов, табулатур и нот


John Tesh - Carol Of The Bells - таба, видео

Регистрация Запомнить меня
Войти через:  Facebook Google Twitter Vk Yandex Mail.ru

John Tesh - Carol Of The Bells - таба, видео

Печатать
Просмотров: 123
Авторы музыки: Микола Дмитрович Леонтович
Авторы текста: Peter J. Wilhousky
-------------------------------------------------------------------------------
                             Carol of the Bells - John Tesh
-------------------------------------------------------------------------------
Tabbed by: Jesse

Tuning: eBGDAE Standard

e|---------------------------------------------------------------------------|
B|---------------------------------------------------------------------------|
G|---------------------------------------------------------------------------|
D|0-3-5~-(3~-1~-0~)-0-3-5--7--8--10-10/12---12-12---12---12---12-12----------|
A|---------------------------------------------------------------------------|
E|---------------------------------------------------------------------------|

e|--------------      -----10--8-10---    ----10~-----8H10-------------------|
B|11--10-11-----      -------------11-    ----------------11-10-8~-----------|
G|----------12--      ----------------    -----------------------------------|
D|--------------      ----------------    -----------------------------------|
A|--------------      ----------------    -----------------------------------|
E|-------------- x8   ----------------x6  -----------------------------------|

e|-15--15-15-13\11-10--10-10-8---8--8-8-10-8---------------------------------|
B|----------------------------11-------------11--10-11-----------------------|
G|----------------------------------------------------12---------------------|
D|---------------------------------------------------------------------------|
A|---------------------------------------------------------------------------|
E|---------------------------------------------------------------------------|

e|---------------------------------------|
B|-------------10-11-13-15-13H15P13-11---|
G|-------11-12---------------------------|
D|-10-12---------------------------------|
A|---------------------------------------|
E|---------------------------------------| x2

e|-------------    ----------------------------------------------------------|
B|11--10-11----    ----------------------------------------------------------|
G|----------12-    ----------------------------------------------------------|
D|-------------    5--3--1--0--0-3-5--7--8--10-10/12~----12-12--12--12--12-12|
A|-------------    ----------------------------------------------------------|
E|-------------x4  ----------------------------------------------------------|


************************************
| /   slide up
| \   slide down
| h   hammer-on
| p   pull-off
| ~   let ring
************************************

This is the first part of the song, not the whole thing. Any corrections/additions welcome.
Добавлено: 05.07.2015
Другие материалы по этой песне:
  • Аккорды и текст

Страница создана 05.07.2015
http://primanota.ru/john-tesh/carol-of-bells-chords.htm
Привет, Гость.
Предлагаем пройти революционный курс по гитаре.
Подарок от PrimaNota.Ru, забирай!