PrimaNota.ru - самый крупный в мире бесплатный архив песенных текстов, аккордов, табулатур и нот


John Frusciante - Untitled #4 - таба, видео

Регистрация Запомнить меня
Войти через:  Facebook Google Twitter Vk Yandex Mail.ru

John Frusciante - Untitled #4 - таба, видео

Печатать
Просмотров: 156
Уроки эстрадного вокала в Санкт-Петербурге
Guitar 1 (Distortion)
                           X3
---3-p-0------------0--12--||-----2----12p10--------12p10----------|--------|
----------0-------0--------||----3-----------10--7--------10--7b---|--------|
----------------0----------||---2----------------------------------|--------|
-2-------------------------||--0-----------------------------------|--------|
---------------------------||--------------------------------------|--------|
---------------------------||--------------------------------------|--------|


Guitar 2 (Clean)         X3
---3-p-0------------0--12--||-----2----12p10--------12p10----------|--------|
----------0-------0--------||----3-----------10--7--------10--7b---|--------|
----------------0----------||---2----------------------------------|--------|
-2-------------------------||--0-----------------------------------|--------|
---------------------------||--------------------------------------|--------|
---------------------------||--------------------------------------|--------|

-8------------------12----8-----------------12----8-----------------12----2-|
---8--------------8---------8-------------8---------8-------------8-------3-|
------9---------9-------------9---------9-------------9---------9---------2-|
--------10---10-----------------10---10-----------------10---10----------0--|
----------------------------------------------------------------------------|
----------------------------------------------------------------------------|


-8-----------------------------------------------------------15----15---14--|
---8--------8-------7--5----------5/10-10-10-10-10-10/12--12----12------15--|
------9-----------------------------------------------------------------14--|
--------10------------------------------------------------------------12----|
----------------------------------------------------------------------------|
----------------------------------------------------------------------------|

----------------------------------------------------------------------------|
-10-10-12--13---------------------------------------------------------------|
----------------------------------------------------------------------------|
-------------------------14-------------------9-----------------------------|
----------------------------15----14-14----10--------------14-------14b-----|
--------------------------------12-------8--------------12----12-10------8--|

------------------------12----19--------------------12--19-------17----19b--|
-10-10-12--13-----12b--------------------12b----13--------------------------|
----------------------------------------------------------------------------|
----------------------------------------------------------------------------|
----------------------------------------------------------------------------|
----------------------------------------------------------------------------|


                                               A#  C   G
--------------------------------------------||---|---|----------------------|
--------------------------------------------||---|---|----------------------|
-12--------12-------------------------------||-Strum Chords-----------------|
-------14--------14--12b-14------12---------||---|---|----------------------|
--------------------------------------------||---|---|----------------------|
-12-12-12-----12-12----------15------15-----||---|---|----------------------|

-----------------------------------------------------12b-12b-12b-13-13b-10--|
----------------------------------------------------------------------------|
----------------------------------------------------------------------------|
---------------------12b----------------------------------------------------|
----------------------------------------------------------------------------|
----------------------------------------------------------------------------|


   A#            C               G
----------------------------------------------------------------------------|
-pb15-15-15-r-b--pb13-13-13-13r--14p13p12-12b-12b--12p10p9-11-12-12---------|
----------------------------------------------------------------------------|
----------------------------------------------------------------------------|
----------------------------------------------------------------------------|
----------------------------------------------------------------------------|

    A#                     C              G
----------------------------------------------15-----------11--------------|
-11p10p9-11p10p9-11---15b-pb16-15-12-----16b-----16----11b----11-----------|
-----------------------------------------------------------------12--------|
---------------------------------------------------------------------------|
---------------------------------------------------------------------------|
---------------------------------------------------------------------------|

----------------------------------------------------------------------------|
----------------------------------------------------------------------------|
-14p12----12------14p12----12-----------------------------------------------|
-------12---------------12--------------------------------------------------|
----------------------------------------------------------------------------|
----------------------------------------------------------------------------|


----------------------------------------------------------------------------|
----------------------------------------------------------------------------|
-14p12----12-------14p12----12----------------------------------------------|
-------12----------------12-------------------------------------------------|
----------------------------------------------------------------------------|
----------------------------------------------------------------------------|
Добавлено: 06.05.2012
Другие материалы по этой песне:

Страница создана 06.05.2012
http://primanota.ru/john-frusciante/untitled-4-chords.htm
Привет, Гость.
Предлагаем пройти революционный курс по гитаре.
Подарок от PrimaNota.Ru, забирай!