PrimaNota.ru - самый крупный в мире бесплатный архив песенных текстов, аккордов, табулатур и нот


John Frusciante - Untitled 12 - текст песни, таба, видео

Регистрация Запомнить меня
Войти через:  Facebook Google Twitter Vk Yandex Mail.ru

John Frusciante - Untitled 12 - текст песни, таба, видео

Печатать
Просмотров: 32
          --------------------------------------------------

                   JOHN FRUSCIANTE - UNTITLED #12
                From NIANDRA LADES AND USUALLY JUST A 
               T-SHIRT, released on November 22nd, 1994

          --------------------------------------------------





             The acoustic guitar has the low E tuned 
             to a D for the intro ONLY. The electric 
             and second acoustic guitars are in 
             standard tuning.






   Blind your head in catastrophe icicles
   No-one's fed in cycles led by cycles dead
   Ask to shine the flag
   Love is distance and blue sits like apples bite
   And flows through our hands
   I said 'Hi' to a man who shot his sister
   Panned through the station
   And jumped in front of a train
   Said I'm a bit confused to meet you
   Life's what scissors do to a day
   So their smiles pave the way
   Sand drips with waves
   And clouds my head cuz I'm a fortune fellah's bed
   And I'm the tunes played by the goons
   Who ride in fairy's wombs
   And stole the road the other way
   And sold tomorrow to yesterday and
   I know the feeling of pushing you out of a building
   Tiny people pulsating hit the sky
   Still the ground got up and wiped your face
   You expected to fly, wind up your misfortune
   Sling 'em to a Maitre-Dee 
   Who wears dead butterflies on his face
   And is hoping to grow wings
   He really wants to tell you 
   'hey give your tears to today'
   Grind yourself souvenirs under your stolen years
   Hands in your pockets 
   Your hands getting numb been hurt in grinds jive

   Do the avenues that seem to meet defeat you
   Did you ever try to hug the sky behind your head
   I walked forever sightseeing a screen
   Shuffled a mean green ping
   Dives head first into a hole in the water
   Drives side to side like a floating machine
   Dove dancing to a fable told to a sea of disintegration
   Crawl to a celebration of dirt that leaves that taste of wine
   Sucked from a hair that digs into the darkness
   Full of the fair that my head rides

   I slide your kind through a ladder 
   Hanging on a star
   Stray close so far
   Away from the climb
   A tape like section of introspection
   To rewind would be to recline
   Hit the pounds underlying gently
   Ride on the side
   Tell your problems to zero
   He's got nothing to hide






    INTRO

  e|-------------------------------|-------------------------------|
  B|0-----------6-------5---------5|--------5-------4-3------------|
  G|--0---------5-------5---------5|--------5-----------5-3--------|
  D|----0--------------------------|------------------------3---5--|
  A|------3-----3-------------3----|----3-------3------------------|
  D|--------1----------------------|-------------------------------|





  e|-------------------------------|-------------------------------|
  B|----------------0-----------6--|----5---5-------4-3------------|
  G|------------------0---------5--|----5---5-----------5-3--------|
  D|----5---5\----------0----------|------------------------3---5--|
  A|----------------------3-----3--|----3---3----------------------|
  D|------------------------1------|-------------------------------|





  e|-------------------------------|-------------------------------|
  B|------------------------3------|4---4-4---4-4---3H4-4---4---4-4|
  G|----3-------4-------5----------|-------------------------------|
  D|-------------------------------|-------------------------------|
  A|-------------------------------|-------------------------------|
  D|-------------------------------|-------------------------------|

  e|-------------------------------|------------5---5-5-----5---5-5|
  B|------------------------3---4--|--------4-----4-----4-----4----|
  G|--------3---3-5B7---5----------|-------------------------------|
  D|----3H5---5--------------------|-------------------------------|
  A|-------------------------------|-------------------------------|
  E|-------------------------------|-------------------------------|





  e|-------------------------------|-------------------------------|
  B|4---4-4---4---4-3H4-4-4-4---4-4|4---4-4-4-4-4-4-3H4-4-4-4-----4|
  G|-------------------------------|-------------------------------|
  D|-------------------------------|-------------------------------|
  A|-------------------------------|-------------------------------|
  D|-------------------------------|-------------------------------|

  e|----5---5-5--------------------|-------------------------------|
  B|4-----4-----4------------------|-------------------------------|
  G|--------------------5---8---7-5|7---5---5---------5---5-7B8-7-5|
  D|----------------5H7------------|------7-----7-5-7---7----------|
  A|-------------------------------|-------------------------------|
  E|-------------------------------|-------------------------------|





  e|------4-----3------------------|3-----4-----3------------------|
  B|4-4-4---4-4---4-3H4-4-4-4---4-4|--4-4---4-4---4-3H4-4-4-4---4-4|
  G|-------------------------------|-------------------------------|
  D|-------------------------------|-------------------------------|
  A|-------------------------------|-------------------------------|
  D|-------------------------------|-------------------------------|

  e|-------------------------------|-------------------------------|
  B|-------------------------------|-------------------------------|
  G|7---5---5---5---7B8-7-5-7---5--|5-----8---7-5---5-------5------|
  D|------7---7-------------------7|--------------7-----5H7-----6--|
  A|-------------------------------|-------------------------------|
  E|-------------------------------|-------------------------------|





  e|2-----2-----2------------------|3-----2-----3------------------|
  B|--4-4---4-4---4-3H4-4-4-4---4-4|--4-4---4-4---4-3H4-4-4-4------|
  G|-------------------------------|---------------------------3B4-|
  D|-------------------------------|-------------------------------|
  A|-------------------------------|-------------------------------|
  D|-------------------------------|-------------------------------|

  e|------------3--3B4--4---3------|-------------------------------|
  B|--------3/4-----------------6-5|6---5-4-----------------3/4----|
  G|5-----5------------------------|----------7-5-7-5---5-------5--|
  D|----6--------------------------|------------------7-----------5|
  A|-------------------------------|-------------------------------|
  E|-------------------------------|-------------------------------|





  e|-------------------------------|-------------------------------|
  B|-------------------------------|----------------0-----------6--|
  G|4B--4-4-4-4-4------------------|------------------0---------5--|
  D|----------------5---5-5-5---5-5\1---1-1-1-1-1-1-----0----------|
  A|-------------------------------|----------------------3-----3--|
  D|-------------------------------|------------------------1------|

  e|-------------------------------|-------------------------------|
  B|-------------------------------|-------------------------------|
  G|5---------------5---5---7/8-7--|5-----------7-5-7-5------------|
  D|------------5H7---7------------|--------------------6-------5--|
  A|-------------------------------|-------------------------------|
  E|-------------------------------|-------------------------------|





  e|-------------------------------|-------------------------------|
  B|--5-5---5-5-5---4-3------------|-------------------------------|
  G|5-5-5---5-5-5-------5-3--------|-------------------------------|
  D|------------------------3H5-5--|5---5-5-5----------------------|
  A|3-3-3---3-3-3------------------|3---3-3-3----------------------|
  D|-------------------------------|-------------------------------|

  e|-------------------------------|----------------------6-------8|
  B|-------------------------------|------------8------------------|
  G|----5-----------------------7/8|-------------------------------|
  D|-------------------------------|-------------------------------|
  A|-------------------------------|-------------------------------|
  E|-------------------------------|-------------------------------|





  e|--10----6-----------6-8-10--6--|--------6---6-6-------------6--|
  B|----------------8--------------|8-6-8-----8-----8---7-8-8-----8|
  G|-------------------------------|-------------------------------|
  D|-------------------------------|-------------------------------|
  A|-------------------------------|-------------------------------|
  E|-------------------------------|-------------------------------|





  e|6-8-81086---6------------------|-------------------------------|
  B|-----H-P--8---8-7-8-7-6--------|-------------------------------|
  G|------------------------7-7-7/8|----787------------------------|
  D|-------------------------------|-----HP-8-5-x------------------|
  A|-------------------------------|-------------------------------|
  E|-------------------------------|-------------------------------|





  e|-------------------------------|-------------------------------|
  B|-------------------------------|-------------------------------|
  G|-------------------------------|------------------------------3|
  D|-------------------------------|--------1-----------1---1--/5--|
  A|------6-686-5---565------------|------------3--13------3-------|
  E|---------HP------HP-3----------|-------------------------------|





  e|-------------------------------|
  B|-------------------------------|
  G|5------------------------------|
  D|-------------------------------|
  A|----3-1------------------------|
  E|-------------------------------|




    VERSE
    01:02

  e|----8---------------7----------|----5---------------0----------|
  B|-------------------------------|-------------------------------|
  G|-------------------------------|-------------------------------|
  D|-------------------------------|-------------------------------|
  A|7---------------5--------------|3---------------0--------------|
  E|-------------------------------|-------------------------------|
            Blind your head...
  e|----12-------------------------|-------------------------------|
  B|-------------------------------|-------------------------------|
  G|-------------------------------|-------------------------------|
  D|-------------------------------|-------------------------------|
  A|-------------------------------|------------5H7-7-7------------|
  E|-------------------------------|-------------------------------|





  e|----3-----------1P0------------|----3-----------1P0------------|
  B|-------------------------------|-------------------------------|
  G|-------------------------------|-------------------------------|
  D|-------------------------------|-------------------------------|
  A|3-------------------0----------|3-------------------0----------|
  E|-------------------------------|-------------------------------|
                                                            No-one's
  e|-------------------------------|-------------------------------|
  B|-------------------------------|-------------------------------|
  G|-------------------------------|-------------------------------|
  D|------------5---5--/9----------|------------5---5-------7------|
  A|--------5H7---7---------7----57|-----57-------7----(7)------7--|
  E|-------------------------------|-------------------------------|





  e|----8---------------7----------|----5---------------0----------|
  B|-------------------------------|-------------------------------|
  G|-------------------------------|------------x---------------x--|
  D|-------------------------------|------------x---------------x--|
  A|7---------------5--------------|3-----------x---0-----------x--|
  E|-------------------------------|-------------------------------|
    fed in cycles...
  e|-------------------------------|-------------------------------|
  B|-------------------------------|-------------------------------|
  G|----7-H-9---9--79-7-9-7-9---9-7|9---9---9-9---7-9--x9---9-7-9-9|
  D|-------------------------------|-------------------------------|
  A|-------------------------------|-------------------------------|
  E|-------------------------------|-------------------------------|





  e|----3-----------1P0------------|----3-----------1P0------------|
  B|-------------------------------|-------------------------------|
  G|------------x---------------x--|------------x---------------x--|
  D|------------x---------------x--|------------x---------------x--|
  A|3-----------x-------0-------x--|3-----------x-------0-------x--|
  E|-------------------------------|-------------------------------|
        Love is distance...
  e|-------------------------------|-------------------------------|
  B|-------------------------------|5-----5-----5------------------|
  G|7-------5-------7-5-7-5-5------|----5---5-5---5-----4H5-4-4H5-4|
  D|-------------------------------|-------------------------------|
  A|-------------------------------|-------------------------------|
  E|-------------------------------|-------------------------------|





  e|----8---------------7----------|----5---------------0----------|
  B|-------------------------------|-------------------------------|
  G|------------x---------------x--|------------x---------------x--|
  D|------------x---------------x--|------------x---------------x--|
  A|7-----------x---5-----------x--|3-----------x---0-----------x--|
  E|-------------------------------|-------------------------------|
    And flows thru...                                     I said hi...
  e|-------------------------------|------------/7--8---7-9\-------|
  B|-------------------------------|-------------------------------|
  G|-------------------------------|------------------9-----9------|
  D|7---797-5---575----------------|-------------------------------|
  A|-----HP------HP-7-------7---7--|----5H7-7-7-----------------5--|
  E|-------------------------------|-------------------------------|





  e|----3-----------1P0------------|----3-----------1P0------------|
  B|-------------------------------|-------------------------------|
  G|------------x---------------x--|------------x---------------x--|
  D|------------x---------------x--|------------x---------------x--|
  A|3-----------x-------0-------x--|3-----------x-------0-------x--|
  E|-------------------------------|-------------------------------|
                                    panned through...
  e|-------------------------------|-------------------------------|
  B|---/8-----8-----8---8-8--------|----8-----8-----8---8----------|
  G|-------------------------------|-------------------------------|
  D|--------9-----9---8-----8------|--------7-----7---------9------|
  A|7---------------------------5--|7/--------------------------5--|
  E|-------------------------------|-------------------------------|





  e|----8---------------7----------|----5---------------0----------|
  B|-------------------------------|-------------------------------|
  G|------------x---------------x--|------------x---------------x--|
  D|------------x---------------x--|------------x---------------x--|
  A|7-----------x---5-----------x--|3-----------x---0-----------x--|
  E|-------------------------------|-------------------------------|
    And jumped...
  e|-------------------------------|-------------------------------|
  B|----8-----8-----------------8--|------------------8------------|
  G|-------------------------------|-------------------------------|
  D|--------9----------------------|9---------------------9-9\-----|
  A|7/------------7-x---9---7------|----7H9-9-9---7-------------7--|
  E|-------------------------------|-------------------------------|





  e|----3-----------1P0------------|----3-----------1P0------------|
  B|-------------------------------|-------------------------------|
  G|------------x---------------x--|------------x---------------x--|
  D|------------x---------------x--|------------x---------------x--|
  A|3-----------x-------0-------x--|3-----------x-------0-------x--|
  E|-------------------------------|-------------------------------|
    said I'm a bit confused...                                 and so
  e|-------------------------------|-------------------------------|
  B|-------------------------------|-------------------------------|
  G|----------------------------9--|-------------------------------|
  D|-------------------------------|-------------------------------|
  A|9---7--------------------------|-------------------------------|
  E|-------------------------------|-------------------------------|




    01:50

  e|--------------------1----------|--------------------1----------|
  B|1H3-------------1H3-3----------|1H3-------------1H3-3----------|
  G|--------------------2----------|--------------------2----------|
  D|--------------------0----------|--------------------0----------|
  A|-------------------------------|-------------------------------|
  E|----3--------------------------|----3--------------------------|
    their smile...
  e|-----/7H8----------------------|-------------------------------|
  B|-------------------------------|-------------------------------|
  G|-------------------------------|-------------------------------|
  D|-------------------------------|-------------------------------|
  A|-------------------------------|-------------------------------|
  E|-------------------------------|-------------------------------|




    01:56

  e|----8---------------7----------|----5---------------0----------|
  B|-------------------------------|-------------------------------|
  G|-------------------------------|-------------------------------|
  D|-------------------------------|-------------------------------|
  A|7---------------5--------------|3---------------0--------------|
  E|-------------------------------|-------------------------------|
    And clouds...
  e|-------------------------------|---/8-----0--------------------|
  B|-------------------------------|-------------------------------|
  G|-------------------------------|-------------------------------|
  D|-------------------------------|----------------------------5-5|
  A|-------------------------------|----------------5---7-----7----|
  E|-------------------------------|-------------------------------|





  e|----3-----------1P0------------|----3-----------1P0------------|
  B|-------------------------------|-------------------------------|
  G|-------------------------------|-------------------------------|
  D|-------------------------------|-------------------------------|
  A|3-------------------0----------|3-------------------0----------|
  E|-------------------------------|-------------------------------|

  e|---/8-----0--------------------|---/8-----0--------------------|
  B|-------------------------------|-------------------------------|
  G|-------------------------------|-------------------------------|
  D|------------------------5---5-5|------------------------5---5--|
  A|7---------------5---7-----7----|7---------------5---7-----7----|
  E|-------------------------------|-------------------------------|





  e|----8---------------7----------|----5---------------0----------|
  B|-------------------------------|-------------------------------|
  G|-------------------------------|-------------------------------|
  D|-------------------------------|-------------------------------|
  A|7---------------5--------------|3---------------0--------------|
  E|-------------------------------|-------------------------------|

  e|---/8-----0--------------------|---/8-----0--------------------|
  B|-------------------------------|-------------------------------|
  G|-------------------------------|-------------------------------|
  D|----------------------------5-5|--------------------5-5--------|
  A|7---------------5---7-5-7------|7-------------5-7-5-----7---5--|
  E|-------------------------------|-------------------------------|





  e|----3-----------1P0------------|----3-----------1P0------------|
  B|-------------------------------|-------------------------------|
  G|-------------------------------|-------------------------------|
  D|-------------------------------|-------------------------------|
  A|3-------------------0----------|3-------------------0----------|
  E|-------------------------------|-------------------------------|

  e|--8---0-8---8-0----------------|----8---0-8---8-0--------------|
  B|-------------------------------|-------------------------------|
  G|-------------------------------|-------------------------------|
  D|-------------------------------|----------------------------5--|
  A|7-------------------7-7-7------|7-------------------5-7-7-----7|
  E|-------------------------------|-------------------------------|




    02:20

  e|--------------------1----------|--------------------1----------|
  B|1H3-------------1H3-3----------|1H3-------------1H3-3----------|
  G|--------------------2----------|--------------------2----------|
  D|--------------------0----------|--------------------0----------|
  A|-------------------------------|-------------------------------|
  E|----3--------------------------|----3--------------------------|

  e|----10-------------------------|-------------------------------|
  B|-------------------------------|----------------8B10-----------|
  G|----------------5B7------------|-------------------------------|
  D|-------------------------------|-------------------------------|
  A|7------------------------------|-------------------------------|
  E|-------------------------------|-------------------------------|




    02:26

  e|----8---------------7----------|----5---------------0----------|
  B|-------------------------------|-------------------------------|
  G|-------------------------------|-------------------------------|
  D|-------------------------------|-------------------------------|
  A|7---------------5--------------|3---------------0--------------|
  E|-------------------------------|-------------------------------|

  e|-------------------------------|-------------------------------|
  B|--------8----------------------|----8--------------------------|
  G|----------------9--------------|--------------9----------------|
  D|------------7------------------|--------7----------------------|
  A|-------------------------------|-------------------------------|
  E|-------------------------------|-------------------------------|





  e|----3-----------1P0------------|----3-----------1P0------------|
  B|-------------------------------|-------------------------------|
  G|-------------------------------|-------------------------------|
  D|-------------------------------|-------------------------------|
  A|3-------------------0----------|3-------------------0----------|
  E|-------------------------------|-------------------------------|

  e|-------------------------------|-------------------------------|
  B|--------8----------------------|-------------------------------|
  G|----------------9-----------7H9|9------------------------------|
  D|------------7------------------|-------------------------------|
  A|-------------------------------|-------------------------------|
  E|-------------------------------|-------------------------------|





  e|----8---------------7----------|----5---------------0----------|
  B|-------------------------------|-------------------------------|
  G|-------------------------------|-------------------------------|
  D|-------------------------------|-------------------------------|
  A|7---------------5--------------|3---------------0--------------|
  E|-------------------------------|-------------------------------|

  e|-------------------------------|-------------------------------|
  B|-------------------------------|-------------------------------|
  G|----99-99999999999999999999999999---\--------------------------|
  D|----77-77777777777777777777777777---\--------------------------|
  A|-------------------------------|-------------------------------|
  E|-------------------------------|-------------------------------|





  e|----3-----------1P0------------|----3-----------1P0------------|
  B|-------------------------------|-------------------------------|
  G|-------------------------------|-------------------------------|
  D|-------------------------------|-------------------------------|
  A|3-------------------0----------|3-------------------0----------|
  E|-------------------------------|-------------------------------|

  e|-------------------------------|-------------------------------|
  B|-------------------------------|-------------------------------|
  G|-------------------------------|-------------------------------|
  D|-------------------------------|------------------------5B7----|
  A|-------------------------------|-------------------------------|
  E|-------------------------------|-------------------------------|





  e|----8---------------7----------|----5---------------0----------|
  B|-------------------------------|-------------------------------|
  G|-------------------------------|-------------------------------|
  D|-------------------------------|-------------------------------|
  A|7---------------5--------------|3---------------0--------------|
  E|-------------------------------|-------------------------------|

  e|-------------------------------|-------------------------------|
  B|-------------------------------|-------------------------------|
  G|-------------------------------|-------------------------------|
  D|-------------------------------|----------------5B7------------|
  A|-------------------------------|-------------------------------|
  E|-------------------------------|-------------------------------|





  e|----3-----------1P0------------|----3-----------1P0------------|
  B|-------------------------------|-------------------------------|
  G|-------------------------------|-------------------------------|
  D|-------------------------------|-------------------------------|
  A|3-------------------0----------|3-------------------0----------|
  E|-------------------------------|-------------------------------|

  e|-------------------------------|-------------------------------|
  B|-------------------------------|-------------------------------|
  G|-------------------------------|-------------------------------|
  D|--------7----------------------|----7--------------------------|
  A|-------------------------------|-------------------------------|
  E|-------------------------------|-------------------------------|




    03:01

  e|--------------------1----------|--------------------1----------|
  B|1H3-------------1H3-3----------|1H3-------------1H3-3----------|
  G|--------------------2----------|--------------------2----------|
  D|----5---------------0----------|--------------------0----------|
  A|-------------------------------|-------------------------------|
  E|-------------------------------|----3--------------------------|

  e|-------------------------------|-------------------------------|
  B|----8-6-5-6-----5-6------------|-------------------------------|
  G|--------------------7----------|--------------------2----------|
  D|-------------------------------|----5-3-2-3---2-3--------------|
  A|-------------------------------|-------------------------------|
  E|-------------------------------|-------------------------------|




    BRIDGE
    03:07

  e|------------------5-----5-----7|--------------5--------5-------|
  B|----7-----7--------------------|------7---------7---7-----9-7-5|
  G|-------------------------------|-------------------------------|
  D|0------------------------------|-------------------------------|
  A|----------------0---0---0------|-------------------------------|
  E|----------------------------0--|------------0------------------|
    Do the avenues...                                      did you




  e|----------------5-----5---5----|7H9-7--------------------------|
  B|7-------7----------------------|-------------------------------|
  G|-------------------------------|-------------------------------|
  D|0-----------0------------------|-------------------------------|
  A|----------------0---0---0---0--|-------------------------------|
  E|-------------------------------|0------------------------------|
    ever try...



    03:20

  e|7-------7-------10----10----12-|--------12----12--12----12-----|
  B|-------------------------------|-------------------------------|
  G|0-----------0------------------|-------------------------------|
  D|----------------0---0---0---9--|----9-------9---9---9-------9--|
  A|-------------------------------|-------------------------------|
  E|-------------------------------|-------------------------------|
    I walked forever...




  e|7-------7-------10----10--10---|12--12------12------12------12-|
  B|-------------------------------|-------------------------------|
  G|0-----------0------------------|-------------------------------|
  D|----------------0---0---0---0--|-------------------------------|
  A|-------------------------------|0-------0---------------0------|
  E|-------------------------------|-------------------------------|
                                                            head



    03:32

  e|2-------2-------5-----5--------|----7--------------(7)------2P0|
  B|----------------------------7--|------------7------------------|
  G|-------------------------------|-------------------------------|
  D|0-----------0------------------|-------------------------------|
  A|----------------0---0----------|-------------------------------|
  E|----------------------------0--|----------------0---0---0------|
    first into...                                       drives side to




  e|2-------2-------5-----5---5----|7H9-7-------7-------10---------|
  B|-------------------------------|----------------10B12--R10--10-|
  G|-------------------------------|-------------------------------|
  D|0-----------0------------------|-------------------------------|
  A|----------------0---0---0---0--|-------------------------------|
  E|-------------------------------|0------------------------------|
    side...                                                     dove



    03:44

  e|7-------7-------10----------12-|--------12----12------10-------|
  B|-------------------------------|------------------12------12---|
  G|0-----------0------------------|-------------------------------|
  D|----------------0---0---0---9--|----9-------9---9---9---9------|
  A|-------------------------------|-------------------------------|
  E|-------------------------------|-------------------------------|
    dancing...                                            crawl to...




  e|7-------7-------10----10--10---|12--12------12------12------12-|
  B|-------------------------------|-------------------------------|
  G|0-----------0------------------|-------------------------------|
  D|----------------0---0---0---0--|-------------------------------|
  A|-------------------------------|0-------0---------------0------|
  E|-------------------------------|-------------------------------|




    03:56

  e|12------12------10----------7--|----8-------8---8-----8---8----|
  B|----------------------------8--|--------10----10----10--10--10-|
  G|----------------9---9---9------|-------------------------------|
  D|10----------10-----------------|-------------------------------|
  A|-------------------------------|-------------------------------|
  E|-------------------------------|-------------------------------|
    Sucked from...




  e|8-------8-------10----10----8--|--------8---8-------8---8--|
  B|-------------------------------|----10--------10--------10-|
  G|----------------9---9---9------|---------------------------|
  D|10--10------10-----------------|---------------------------|
  A|-------------------------------|---------------------------|
  E|-------------------------------|---------------------------|




    VERSE
    04:09

  e|----8---------------7----------|----5---------------0----------|
  B|-------------------------------|-------------------------------|
  G|-------------------------------|-------------------------------|
  D|-------------------------------|-------------------------------|
  A|7---------------5--------------|3---------------0--------------|
  E|-------------------------------|-------------------------------|
    I slide...




  e|----3-----------1P0------------|----3-----------1P0------------|
  B|-------------------------------|-------------------------------|
  G|-------------------------------|-------------------------------|
  D|-------------------------------|-------------------------------|
  A|3-------------------0----------|3-------------------0----------|
  E|-------------------------------|-------------------------------|





  e|----8---------------7----------|----5---------------0----------|
  B|-------------------------------|-------------------------------|
  G|-------------------------------|-------------------------------|
  D|-------------------------------|-------------------------------|
  A|7---------------5--------------|3---------------0--------------|
  E|-------------------------------|-------------------------------|
    A tape like...




  e|----3-----------1P0------------|----3-----------1P0------------|
  B|-------------------------------|-------------------------------|
  G|-------------------------------|-------------------------------|
  D|-------------------------------|-------------------------------|
  A|3-------------------0----------|3-------------------0----------|
  E|-------------------------------|-------------------------------|





  e|--------------------1----------|--------------------1----------|
  B|1H3-------------1H3-3----------|1H3-------------1H3-3----------|
  G|--------------------2----------|--------------------2----------|
  D|--------------------0----------|--------------------0-------0--|
  A|-------------------------------|-------------------------------|
  E|----3--------------------------|----3--------------------------|
        Hit the pounds




  e|1-----1------------------------|-------------------------------|
  B|3-----3------------------------|-------------------------------|
  G|2-----2------------------------|-------------------------------|
  D|0-----0------------------------|-------------------------------|
  A|-------------------------------|-------------------------------|
  E|-------------------------------|-------------------------------|
    Tell your problems...




  e|-------------------------------|----6-----6--------------------|
  B|-------------------------------|7-------7-----7----------------|
  G|-------------------------------|-------------------------------|
  D|-------------------------------|-------------------------------|
  A|-------------------------------|-------------------------------|
  E|-------------------------------|-------------------------------|




    OUTRO
    04:51

  e|----6-------6-------6----------|------------------------6P4----|
  B|7-----7---------------------9--|----7-------7---7-----------7--|
  G|--------8----------------------|-------------------------------|
  D|----------8--------------------|-------------------------------|
  A|----------------7-------7------|7-------6-----6-----7----------|
  E|-------------------------------|-------------------------------|





  e|----------------6P4------------|6P4----------------------------|
  B|9---7-------9-------7---7------|----7-------9---7--------------|
  G|-------------------------------|-------------------------------|
  D|-------------------------------|-------------------------------|
  A|--------6-------------------7--|--------6-----6-----6----------|
  E|-------------------------------|-------------------------------|





  e|----------------6---4----------|-------------------------------|
  B|----5---7-------------------7--|--9---7-------------------7---9|
  G|-------------------------------|----------9-----8-----9--------|
  D|-------------------------------|-------------------------------|
  A|6-----6-----6-----------7------|7---7---6---6-------6---6---6--|
  E|-------------------------------|-------------------------------|





  e|--------------------6-x-4---6P4|4------------------------------|
  B|------4-------5----------------|----7-----5---------5---7---9--|
  G|-------------------------------|-------------------------------|
  D|-------------------------------|-------------------------------|
  A|----6-----6-------6-------7---7|--7---7-------6---6---6---6----|
  E|-------------------------------|-------------------------------|





  e|----7---6----------------------|----------------6-x-------6----|
  B|9---------------9-----7-----6--|-------------------------------|
  G|-------------------------------|----8--------------------------|
  D|-------------------------------|-------------------------------|
  A|--6---6---6---------6---6------|6-------6---7-----------7------|
  E|-------------------------------|-------------------------------|
Добавлено: 08.05.2016
Другие материалы по этой песне:

Страница создана 29.02.2012
http://primanota.ru/john-frusciante/untitled-12-chords.htm
Привет, Гость.
Предлагаем пройти революционный курс по гитаре.
Подарок от PrimaNota.Ru, забирай!