PrimaNota.ru - самый крупный в мире бесплатный архив песенных текстов, аккордов, табулатур и нот


John Frusciante - As Can be - аккорды и текст, таба, видео

Регистрация Запомнить меня
Войти через:  Facebook Google Twitter Vk Yandex Mail.ru

John Frusciante - As Can be - аккорды и текст, таба, видео

Печатать
Просмотров: 312
As Can be
John Frusciante
		   As Can Be
By John Frusciante
Album: Niandra LaDes/Usually Just a T-Shirt

Transcribed by Sean Brokenshire
sean@eisa.net.au

Several guitars arranged for one.
------------------0----------------------------------------------
-0---------------------------0---0---0---0----0------------------
---2p0-0-----------------------3---3---3---3----2p0-0------------
-------2--------------------------------------------2------------
-----------------------------------------------------------------
---------(x)(x)(x)--(x)(x)(x)-------------------------(x)(x)(x)--

------------------------------------------------------0--
----------0---0---0---0----0-----3----------3-3-3-3-3---0
------------3---3---3---3----2p0-------------------------
-----------------------------------(x)(x)(x)-------------
---------------------------------------------------------
-(x)(x)(x)-----------------------------------------------

(I can't be bothered tabbing the rest, but you get the idea)


One Two Three Four
(long instrumental similar to above tab)

Bm                  D
When  you've  got  a  clean  smile

A                     F#
You  can  walk  with  style

G            A                D   F#
He  can  be  naked  with  no  bra-in

G                     D
In  your  pussy  I'm  cumming

        G     Bm               G    Bm
And  I  love  you,  and  always  had  to

        G             D
Thank  God  I  found  you

                              D        Bm
Beautiful  talkin'  well  it  was  to  me

G        Bm               G     D
C  you  see?  There's  no  more  me

     G               D    Bm
I'm  happy  as  can  be

Note: This may not be 100% correct cause my guitar
      is refusing to stay in tune, and I can't tell
      if some chords are wrong or just out of tune.
      Anyways, I'm sure it's pretty close.     
Добавлено: 08.08.2013
Другие материалы по этой песне:
  • Аккорды и текст

Страница создана 10.05.2012
http://primanota.ru/john-frusciante/as-can-be-chords.htm
Привет, Гость.
Предлагаем пройти революционный курс по гитаре.
Подарок от PrimaNota.Ru, забирай!