PrimaNota.ru - самый крупный в мире бесплатный архив песенных текстов, аккордов, табулатур и нот


John Carpenter - Halloween Theme - таба, бас-таба, видео

Регистрация Запомнить меня
Войти через:  Facebook Google Twitter Vk Yandex Mail.ru

John Carpenter - Halloween Theme - таба, бас-таба, видео

Печатать
Просмотров: 603
Уроки эстрадного вокала в Санкт-Петербурге
E|--------------------------------------|
 |--------------------------------------|
 |--------------------------------------|
 |--------------------------------------|
 |------7-0-0-7-0-0-7-0-0-7-8-----------|
e|--------------------------------------|x2



E|--------------------------------------|
 |--------------------------------------|
 |--------------------------------------|
 |--------------------------------------|
 |------7-0-0-7-0-0-7-0-0-7-8-----------|
e|--------------------------------------|x3




E|-------------------------------0------|
 |--------------------------------------|
 |--------------------------------------|
 |--------------------------------------|
 |------7-0-0-7-0-0-7-0-0-7-8-----------|
e|--------------------------------------|



E|-------------------------------0-1----|
 |--------------------------------------|
 |--------------------------------------|
 |--------------------------------------|
 |------7-0-0-7-0-0-7-0-0-7-8-----------|
e|--------------------------------------|




E|-------------------------------0-1-2--|
 |--------------------------------------|
 |--------------------------------------|
 |--------------------------------------|
 |------7-0-0-7-0-0-7-0-0-7-8-----------|
e|--------------------------------------|


Добавлено: 30.06.2012
Другие материалы по этой песне:

Страница создана 29.02.2012
http://primanota.ru/john-carpenter/halloween-theme-chords.htm
Привет, Гость.
Предлагаем пройти революционный курс по гитаре.
Подарок от PrimaNota.Ru, забирай!