PrimaNota.ru - самый крупный в мире бесплатный архив песенных текстов, аккордов, табулатур и нот


John Butler Trio - Tomorrow Ill Be Home Today - таба, видео

Регистрация Запомнить меня
Войти через:  Facebook Google Twitter Vk Yandex Mail.ru

John Butler Trio - Tomorrow Ill Be Home Today - таба, видео

Печатать
Просмотров: 138
Уроки эстрадного вокала в Санкт-Петербурге
John Butler Trio- Tomorrow, I'll Be Home Today
Tuning- Open C- CGCGCE
Capo- 2 

|-----------------|------------|-----------------|----------|
|-----------------|------------|-----------------|----------|
|-----------------|------------|-----------------|----------|
|-----0h4--4--2-0-|------------|-----0-4--4--2-0-|----0-----|
|-0h2-------------|-2--0-------|-0h2-------------|-2--------|
|-----------------|------------|-----------------|----------|

|-----------------|---------------|---------------|----------|
|-----------------|---------------|---------------|----------|
|-----------------|---------------|---------------|----------|
|-----0h4--4--2p0-|----0h4-4--2p0-|----0h4-4--2p0-|----0-----|
|-0h2-------------|-2-------------|-2-------------|-2--------|
|-----------------|---------------|---------------|----------|

|-----------------|------------|-----------------|----------|
|-----------------|------------|-----------------|----------|
|-----------------|----0-------|-----------------|----------|
|-----0h4--4--2-0-|------------|-----0-4--4--2-0-|----0-----|
|-0h2-------------|-2----------|-0h2-------------|-2--------|
|-----------------|------------|-----------------|----------|

|-----------------|---------------|---------------|----------|
|-----------------|---------------|---------------|----------|
|-----------------|---------------|---------------|----------|
|-----0h4--4--2p0-|----0h4-4--2p0-|----0h4-4--2p0-|----0-----|
|-0h2-------------|-2-------------|-2-------------|-2--------|
|-----------------|---------------|---------------|----------|

|-----------------|------------|-----3-----------|-----------|
|-----------------|----0-------|-2S4---2--0------|-----0-----|
|----------0--2-0-|-2----------|-------------0h2-|-0h2-------|
|-----0h4---------|------------|-----------------|-----------|
|-0h2-------------|------------|-----------------|-----------|
|-----------------|------------|-----------------|-----------|

|-3p0---------------|---------------|-----------------|-----------|
|-----3p2p0---------|---------------|-----------------|-----------|
|-----------2-------|---------------|-----------------|-----------|
|-------------0-2S3-|-2p0---0h2h3-0-|-------3p2p0-----|-----0-----|
|-------------------|-----2---------|-0h2p0-------0h2-|-0h2-------|
|-------------------|---------------|-----------------|-----------|

|-----------------|------------|-----------------|----------|
|-----------------|------------|-----------------|----------|
|-----------------|------------|-----------------|----------|
|-----0h4--4--2-0-|------------|-----0-4--4--2-0-|----0-----|
|-0h2-------------|-2--0-------|-0h2-------------|-2--------|
|-----------------|------------|-----------------|----------|

|-----------------|---------------|---------------|----------|
|-----------------|---------------|---------------|----------|
|-----------------|---------------|---------------|----------|
|-----0h4--4--2p0-|----0h4-4--2p0-|----0h4-4--2p0-|----0-----|
|-0h2-------------|-2-------------|-2-------------|-2--------|
|-----------------|---------------|---------------|----------|

|----------|----------|----------|------|
|----------|----------|----------|------|
|----------|----------|----------|------|
|-5--------|-5--------|-5--------|-5----|
|----------|----------|----------|------|
|-5--------|-5--------|-5--------|-5----|

|----------|----------|----------|------|
|----------|----------|----------|------|
|----------|----------|----------|------|
|-0--------|-0--------|-0--------|-0----|
|----------|----------|----------|------|
|-0--------|-0--------|-0--------|-0----|

|----------|----------|----------|------|
|----------|----------|----------|------|
|----------|----------|----------|------|
|-5--------|-5--------|-5--------|-5----|
|----------|----------|----------|------|
|-5--------|-5--------|-5--------|-5----|


|----------|----------|----------|------|
|----------|----------|----------|------|
|----------|----------|----------|------|
|-0--------|-0--------|-0--------|-0----|
|----------|----------|----------|------|
|-0--------|-0--------|-0--------|-0----|

|----------|----------|----------|------|
|----------|----------|----------|------|
|----------|-2--------|----------|------|
|-7--------|----------|-0--------|-0----|
|----------|-2--------|----------|------|
|-7--------|----------|-0--------|-0----|

|----------|----------|----------|------|
|----------|----------|----------|------|
|----------|----------|----------|------|
|-7--------|-5--------|-0--------|-0----|
|----------|----------|----------|------|
|-7--------|-5--------|-0--------|-0----|
Добавлено: 30.06.2012
Другие материалы по этой песне:
  • Аккорды и текст

Страница создана 30.06.2012
http://primanota.ru/john-butler-trio/tomorrow-ill-be-home-today-chords.htm
Привет, Гость.
Предлагаем пройти революционный курс по гитаре.
Подарок от PrimaNota.Ru, забирай!