PrimaNota.ru - самый крупный в мире бесплатный архив песенных текстов, аккордов, табулатур и нот


John Butler Trio - Revolution Live - таба, видео

Регистрация Запомнить меня
Войти через:  Facebook Google Twitter Vk Yandex Mail.ru

John Butler Trio - Revolution Live - таба, видео

Печатать
Просмотров: 73
-------------------------------------------------------------------------------
        Revolution Live at the Kimberley Coast Gas Protest - John Butler Trio
-------------------------------------------------------------------------------
Tabbed by:Peter


Tuning: Open C (C,G,C,G,C,E) (Capo on 2nd Fret)
Other Notes: He plays this using finger style. It doesn't matter what fingers
you use for what string, use whatever you are comfortable with.

Verse:
e|---------------------------------------------------------------------------|
c|---------------------0----------------------------------0------------------|
G|---------------------------------------------------------------------------|
C|--0----0--0------------0h5p0------5-----5--5---------------0h5p0-----------|
G|--0----0--0----0h5h7--------------5-----5--5----0h5h7----------------------|
C|--0----0--0-----------------------5-----5--5-------------------------------|

e|---------------------------------------------------------------------------|
c|----------------------0---------------------------------0------------------|
G|---------------------------------------------------------------------------|
C|--7----7--7------------0h5p0------7-----7--7--------------0h5p0------------|
G|--7----7--7----0h5h7--------------7-----7--7----0h5h7----------------------|
C|--7----7--7-----------------------7-----7--7-------------------------------|

Chorus:
e|---------------------------------------------------------------------------|
c|---------------------------------------------------------------------------|
G|----------------------------5-5-5-5-5--------------------------------------|
C|--9-9-9-9-9----5-5-5-5-5----0-0-0-0-0----7-7-7-7-7-------------------------|
G|--9-9-9-9-9----5-5-5-5-5----5-5-5-5-5----7-7-7-7-7-------------------------|
C|--9-9-9-9-9----5-5-5-5-5----0-0-0-0-0----7-7-7-7-7-------------------------|

Play along to the video. I only wrote out the chorus and verse once but they do repeat a few times. 
He throws in a few fills, they aren't that complicated but I just make up my own.


Here's a link the video. I do not own the video and the music is property of The John Butler Trio.
https://www.youtube.com/watch?v=JaPpYiOx83I

************************************

| /   slide up
| \   slide down
| h   hammer-on
| p   pull-off
| ~   vibrato
| +   harmonic
| x   Mute note
| b   Bend
| pb  Pre-bend
| br  Bend release
| pbr Pre-bend release
| brb Bend release bend

************************************
Добавлено: 09.07.2015
Вам также может быть интересно:
Другие материалы по этой песне:
  • Аккорды и текст

Страница создана 09.07.2015
http://primanota.ru/john-butler-trio/revolution-live-chords.htm
Привет, Гость.
Предлагаем пройти революционный курс по гитаре.
Подарок от PrimaNota.Ru, забирай!