PrimaNota.ru - самый крупный в мире бесплатный архив песенных текстов, аккордов, табулатур и нот


Joe Satriani - Slow And Easy - аккорды и текст, видео

Регистрация Запомнить меня
Войти через:  Facebook Google Twitter Vk Yandex Mail.ru

Joe Satriani - Slow And Easy - аккорды и текст, видео

Печатать
Просмотров: 141
Slow And Easy
Joe Satriani
EI----3--3--1-0-1-0--------------0-----0--1--0---0-------------------I
BI-1------------------3--3--1--3-----3---------1------3--------------I
GI-------------------------------------------------------------------I
DI-------------------------------------------------------------------I
AI-------------------------------------------------------------------I

EI----3--3--1-0-1-0--------------0-----0--1--0---0-------------------I
BI-1------------------3--3--1--3-----3---------1------3--------------I
GI-------------------------------------------------------------------I
DI-------------------------------------------------------------------I
AI-------------------------------------------------------------------I

e|----------------------------------------------------------------------------|
B|----14-14-12-11--12--11------------------11------11--12--11------11---------|
G|-11----------------------13--13--11--13------13--------------11------13--13-|
D|----------------------------------------------------------------------------|
A|----------------------------------------------------------------------------|
E|----------------------------------------------------------------------------|

e|-------------------------------------------------------------------------|
B|------14--14--12--11--12--11------------------11------11--12--11------14-|
G|--11--------------------------13--13--11--13------13--------------11-----|
D|-------------------------------------------------------------------------|
A|-------------------------------------------------------------------------|
E|-------------------------------------------------------------------------|

Music in background: converted to guitar
e|--15--20----------------------------------------------|
B|----------13--15--17--17----13--18--------------------|
G|------------------------------------14--16--17--17----|
D|------------------------------------------------------|
A|------------------------------------------------------|
E|------------------------------------------------------|

e|--------------------------20-22-----------------------|
B|--15--17--18--20--22--24------------------------------|
G|------------------------------------------------------|
D|------------------------------------------------------|
A|------------------------------------------------------|
E|------------------------------------------------------|

Pre-solo: Rythym guitar
e|------------------------------------|
B|------------------------------------|
G|------------------------------------|
D|------------xxxxxxx-----------xxxx--|
A|---10----8--xxxxxxx----7-5-3--xxxx--|
E|----8----6--xxxxxxx----5-3-1--xxxx--|

Solo:
e|-------------------------------------------------------------|
B|-------------------------------------------------------------|
G|-----------4h5----4h5----3----3----3p0-----------------------|
D|---------------------------------------10--------------------|
A|--3~~~~~-----------------------------------------------------|
E|-------------------------------------------------------------|

e|-------------------------------------------------------------|
B|-------------------------------------------------------------|
G|-----------------------------------7--7--7-------------------|
D|--8--7-------------------------------------------------------|
A|--------8--8--8--7--8--10---8^-10----------------------------|
E|--------------------------------------------5---8------------|

e|------------------------12131410/12----12-------10----1312--10-------|
B|----------------------13-----------------13-------11------13--11-13--|
G|------------9----12-12---------------------12-9-----10---------------|
D|---------10---10-----------------------------------------------------|
A|----7-10-------------------------------------------------------------|
E|--8------------------------------------------------------------------|

e|-----------------------------------------------------------------|
B|-11--------------------------------------------------------------|
G|------7^--7-5-7^----5--7^----5-7---5-----------------------------|
D|---------------------------------8---7-8-5-7--------------5-5----|
A|---------------------------------------------8-5-10-10-5---------|
E|-----------------------------------------------------------------|

e|---------------------------------------------------------------------|
B|---------------------------------------------------------------------|
G|----------------------------------8^-------8^------8^------8^--------|
D|--------------------------------------10-8----10-8----10-8----10-8---|
A|-6-7-----6-7-----6-7-----6-7-----------------------------------------|
E|-----8-6-----8-6-----8-6-----8---------------------------------------|

e|---------------------------------------------------------------------|
B|---------------------------------------------------------------------|
G|--8-9------8-9------8-9------8-9-10--101210810-121-810-121081012108--|
D|------10-8-----10-8-----10-8-----------------------------------------|
A|---------------------------------------------------------------------|
E|---------------------------------------------------------------------|

e|---------------------------------------------------------------------|
B|--17--15-----171715----17---15-------17--15-----171715----17--15--17-|
G|----17--15---------15---------15--15---17--15---------15----17--15---|
D|----------17---------17--17-----17-----------17---------17-----------|
A|---------------------------------------------------------------------|
E|---------------------------------------------------------------------|

e|-------------------------------------------------------------|
B|-17^-18^-17p15-17----15--------------------------------------|
G|------------------17-------15-17-14--------------------------|
D|-------------------------------------15----3-----------------|
A|-------------------------------------------------------------|
E|-------------------------------------------------------------|

T T T T T
e|-------------------------------------------------------------|
B|-------------------------------------------------------------|
G|--12-0-4-7-12-7-4--0-4-7--12-7-4--0-4-7--12-7-4--0-4-7-12-7--|
D|-------------------------------------------------------------|
A|-------------------------------------------------------------|
E|-------------------------------------------------------------|

T T T T T T T
e|-------------------------------------------------------------|
B|-------------------------------------------------------------|
G|-10-2-5--10-0-2-5-10-0-2-5-10-0-2-5-10-0-2-5-10-0-2-5-10-7-4-|
D|-------------------------------------------------------------|
A|-------------------------------------------------------------|
E|-------------------------------------------------------------|
T T T T T T T T
e|-------------------------------------------------------------------------|
B|-------------------------------------------------------------------------|
G|-12-0-4-7-12-0-4-7-12-0-4-7-12-0-4-7-14-0-4-7-14-0-4-7-14-0-4-7-16-0-4-7-|
D|-------------------------------------------------------------------------|
A|-------------------------------------------------------------------------|
E|-------------------------------------------------------------------------|

T T T T T T T T
e|-------------------------------------------------------------------------|
B|-------------------------------------------------------------------------|
G|-16-0-4-7-16-0-4-7-16-0-4-7-17-0-4-7-17-0-4-7-17-0-4-7-19-0-4-7-19-0-4-7-|
D|-------------------------------------------------------------------------|
A|-------------------------------------------------------------------------|
E|-------------------------------------------------------------------------|
Добавлено: 23.04.2014
Другие материалы по этой песне:

Страница создана 10.03.2012
http://primanota.ru/joe-satriani/slow-and-easy-chords.htm
Привет, Гость.
Предлагаем пройти революционный курс по гитаре.
Подарок от PrimaNota.Ru, забирай!