PrimaNota.ru - самый крупный в мире бесплатный архив песенных текстов, аккордов, табулатур и нот


Joe Hisaishi - Princess Mononoke Theme - таба, видео

Регистрация Запомнить меня
Войти через:  Facebook Google Twitter Vk Yandex Mail.ru

Joe Hisaishi - Princess Mononoke Theme - таба, видео

Печатать
Просмотров: 136
Capo: N/A
Note: eliminating just one or two of the strings in
the very difficult chords will produce about the
same effect, so don't stop trying!

Mononoke Hime

E------12-10-----------------10-8----------------------0--|
A------------10-12----------------8-10-----6------8----0--|
D------------------------------------------5------7----2--|
G------------------------------------------5------7-------|
B------------------------------------------4------6-------|
E------------------------------------------------------0--|

E------0---0------0----0----3---------------0---0--------|
A--------------3------------0-----3---------------3------|
D--2------------------------0----------2-----------------|
G--2-----------------------------------3-----------------|
B--0-----------------------------------------------------|
E--------------------------------------1-----------------|

E---0----0---3----0---3------5-5-5-5-5--5----3-------0---|
A------------0---------------6---------------0---3---1---|
D------------0---------------7---------------0-------0---|
G----------------------------0---------------------------|
B--------------------------------------------2-----------|
E------------0-------------------------------------------|

E------------0---------------------0---------------------|
A---3--3--3-----3--------5---------1---------------------|
D---2--------------2-----0-------------------------------|
G---3--------------------4-------------------------------|
B---1----------------------------------------------------|
E----------------------------------0---------------------|

E-----0--0-----0---------3------------------------------|
A-----------3---------------3-------0-------------------|
D--2------------------2-----2--------------0------------|
G------------------2-------------0-----0-------0----0---|
B--0------------------------3---------------------2-----|
E-------------------------------------------------------|

E------0---0-----0---0-------0---3--------------0--3----|
A-------------3----------2-------0------0---------------|
D--2-----------------------------0----0-----------------|
G--3--------------------------------0-------0-----------|
B-------------------------------------------------------|
E--1-----------------------------0----------------------|

E----5-----5--5--5-------5----3------------0------------|
A----6----------------6-------0-----3------1------------|
D----7--7----------7----------0---0----0---0------------|
G----0--------------------------------------------------|
B-----------------------------2------------3------------|
E-------------------------------------------------------|

E-----------------------0-------------------------------|
A------1-------3--3--3------3------1-----1-----------1--|
D----0---------2------------0--2---------------0--------|
G--2-----------0----------------------------2-----2-----|
B----------------------------------------3--------------|
E---------------------------3---------------------------|

E---5--5-5--7-5-----5----8------7-----0-----------------|
A---5-------------5------0------------------0-----------|
D---5-----------5-----------0------0-----0-----0--------|
G-------------------------------------------------------|
B---0---------------------------------------------------|
E------------------------0------------------------------|

E-----------3--------0---------0------7--7-7-8-7--------|
A----3----------------------3---------0------------0--8-|
D----2--2-------2--------0------------0----------0------|
G----0--------------------------------------------------|
B---------------------3---------------------------------|
E-------------------------------------0-----------------|

E----------7--------0----------0-------5---3----3-------|
A--8------------------------0-----------------6---------|
D------5-------5---------0-------------5----------------|
G--------------------------------------3----------------|
B--0----------------------------------------------------|
E-------------------3-----------------------------------|

E-------------------0-3-5------8-------7---0------------|
A------------0----------6--------------0----------------|
D---------0-------------7--7------7-----------0---------|
G------0---------0------0-------------------------------|
B-------------------------------------------------------|
E---0----------------------------------0----------------|

E-3--5------------5---------5----8------7--0---3-5-------|
A---------5----------5---8--6-----------0--------------0-|
D------5-----5--------------7-7-----7--------0-------3---|
G----3----------------------0----------------------2-----|
B------------------------------------------------5-------|
E---------------------------------------0----------------|

E------------0---------0---5----------------------------|
A----3----3----2----2--------------------1-0------------|
D------2---------2----------------0--2-----------0------|
G-------------------------------2----0--------2---------|
B-------------------------------------------------------|
E------------------------------------------0------------|

E--------0-5-0---0-5---5--------------------------------|
A-----3--------3-------5--------------------------------|
D--2-------------------6--------------------------------|
G-------------------------------------------------------|
B--0-------------------0--------------------------------|
E-------------------------------------------------------|
Добавлено: 24.06.2013
Другие материалы по этой песне:

Страница создана 08.05.2012
http://primanota.ru/joe-hisaishi/princess-mononoke-theme-chords.htm
Привет, Гость.
Предлагаем пройти революционный курс по гитаре.
Подарок от PrimaNota.Ru, забирай!