PrimaNota.ru - самый крупный в мире бесплатный архив песенных текстов, аккордов, табулатур и нот


Joe Hisaishi - Reprise - таба, видео

Регистрация Запомнить меня
Войти через:  Facebook Google Twitter Vk Yandex Mail.ru

Joe Hisaishi - Reprise - таба, видео

Печатать
Просмотров: 238
                       REPRISE - FUTATABI by Joe Hisaishi


This is my transcription of lonlonjp's transcription of Reprise/Futatabi by Joe 
Hisaishi. I DO NOT CLAIM ANY OF THIS TO BE MY OWN. I hope you enjoy it, it took me about 5 hours 
to tab it. Have fun! Spread Hisaishi's beautiful music all over the world...


-Standard Tuning
-about 90 beats per minute
-original key



     E  E  E  E  E  E     E  E  E  E  E  E     E  E  E  E  E  E     E  E  E  E  E  E
E||--------------------|--------------------|--------------------|--------------------|
B||--------------------|--------------------|--------3-----------|--------3-----------|
G||-----------0--------|-----------0--------|--0--------0-----0--|--------------------|
D||--------0-----0-----|--------0-----0-----|--------------0-----|--4--------4--------|
A||-----2-----------2--|-----2-----------2--|-----2-----------2--|--0--5--------5--0--|
E||--3-----------------|--3-----------------|--3-----------------|--------------------|


  E  E  E  E  E  E     E  E  E  E  E  E     E  E  E  E  E  E     E  E  Q    E  E
--0-----------------|--------------0--2--|--3-----2-----0-----|--------3----------|
--------3-----1-----|--3-----------------|--------------------|--3----------------|
-----0-----0-----0--|-----------0--------|-----0-----0-----0--|-----0-------0--2--|
--------0-----2-----|--------0-----------|--------0-----2-----|--------0----------|
--3-----------------|-----2--------------|--3-----------------|-------------------|
--------------------|--3-----------------|--------------------|--3----------------|


  Q    E  E  E  E     Q    Q    Q       E  E  E  E  E  E     E  E  E  E  E  E
-------------------|-----------------|--------------------|--------------------|
--0----------0-----|-----------------|--------3-----------|--------3--------3--|
--2-------------0--|--2----0---------|--0--------0-----0--|--------------------|
--2-------2--------|--0----2----4----|--------------0-----|--4--------4--------|
--0----0-----------|------------5----|-----2-----------2--|--0--5--------5-----|
-------------------|-----------------|--3-----------------|--------------------|


  E  E  E  E  E  E     E  E  E  E  E  E     E  E  E  E  E  E     E  E  E  E  Q
--0-----------------|--------------0--2--|--3-----2-----0-----|--------3-----7----|
--------3-----1-----|--3-----------------|--------------------|--3-----3-----8----|
-----0-----0-----0--|-----------0--------|-----0-----0-----0--|-----0-----0--7----|
--------0-----2-----|--------0-----------|--------0-----2-----|-------------------|
--3-----------------|-----2--------------|--3-----------------|-------------------|
--------------------|--3-----------------|--------------------|--3----------------|


  E  E  E  E  E  E     E  E  E  E  E  E     E  E  E  E  E  E     E  E  E  E  E  E
--8-----------7--5--|--3-----------------|--------------------|--------------------|
--5-----------5-----|-----3-----------0--|--------------------|--0--------------0--|
--5-----5--7--5-----|--------4-----0-----|--2-----2-----------|--------0-----------|
--5--5--------0-----|-----------0--------|--------0--------0--|--------0-----------|
--0-----------------|--------------------|-----0--------0-----|-----2--------2-----|
--------------------|--3-----------------|--2--------2--------|--3--------3--------|


  E  E  E  E  E  E     E  E  E  E  E  E     E  E  E  E  E  E     E  E  E  E  E  E
--------------------|--------------------|--------------------|--------------------|
--1-----1-----0--1--|--3--------------3--|--3--2--2-----3--5--|--5--3--3-----3--5--|
--------0-----0-----|--------0-----0-----|--------3-----------|--------------4-----|
-----0-----2-----2--|-----0-----0--------|-----------4--------|-----4-----4--------|
--------------------|--------------------|--------------------|--2-----------------|
--3-----------------|--3-----------------|--2-----------------|--------------------|


  E  E  E  E  E  E     E  E  E  E  E  E     E  E  E  E  E  E     E  E  E  E  E  E
--------------------|--------------------|--------------------|--------------------|
--6-----5-----------|--------------------|--5-----------------|--------------------|
--------------7-----|--5-----4-----5--7--|--------7-----5-----|--4-----3-----2-----|
-----7-----7-----7--|-----6-----6--------|-----7-----7-----7--|-----0-----0-----0--|
--5-----------------|--------------7-----|--0-----------------|--------------------|
--------------------|--0-----------------|--------------------|--------------------|


  E  E  E  E  E  E     E  E  E  E  Q       E  E  E  E  E  E     E  E  E  E  E  E
--------------------|-------------------|--0-----------------|--------------------|
--------3-----------|--------3----------|--------3-----1-----|--3-----------------|
--0--------0-----0--|-------------------|-----0-----0-----0--|-----------0--------|
--------------0-----|--4--------4-------|--------0-----2-----|--------0-----0-----|
-----2-----------2--|--0--5--------5----|--3-----------------|-----2-----------2--|
--3-----------------|-------------------|--------------------|--3-----------------|


  E  E  E  E  E  E     Q    Q    E  E     Q    Q    Q       Q    Q    E   E
--------------0--2--|--3----3-------5--|--3----3----5----|--7----8----7p--5--|
-----------3--------|--0---------7-----|--3---------5----|--5---------5------|
--------------------|--0---------------|--4---------6----|--5---------5------|
--------0-----------|--2---------------|--0--------------|--0----------------|
-----2--------------|------------6-----|-----------------|-------------------|
--3-----------------|------------------|-----------------|-------------------|


  E  E  E  E  E  E     E  E  E  E  E  E     E  E  E  E  E  E     E  E  E  E  E  E
--3--------------3--|--2-----------------|--0-----7--------0--|--------7--------7--|
--3-----3-----------|-----5--4-----------|-----0--------0-----|--4-----------4-----|
-----4-----4--------|-----------5--4--2--|--------------------|-----4-----4--------|
--------------5-----|--------------------|-----------6--------|--------------------|
--------------------|--2-----------------|--------------------|--------------------|
--3-----------------|--------------------|--0-----------------|--4-----------------|


  E  E  E  E   E  E     E  E  E  E  E   E      E  E   E  E   E  E      E   E   E   E  E  
 E
--9-----7------------|--7-----------9--11--|--12-----11------9-----|----------12------0------|
--------------10-----|-----------0---------|--10-----10-----10-----|--12------12-------------|
-----9-----9------9--|---------------------|---9--9------9------9--|--13--13------13-----11--|
---------------------|--------6------------|-----------------------|-------------------------|
--0------------------|-----7---------------|---0-------------------|-------------------------|
---------------------|--0------------------|-----------------------|---0---------------------|


  E   E  E  E  E  E     E  E   E  E  Q       E  E  E  E  E  E     E  E  E  E  E  E
------------9--------|--------------------|--0-----7--------0--|--------7--------7--|
--9------------9-----|--7-----------------|-----0--------0-----|--4-----------4-----|
---------9--------9--|--------------------|--------------------|-----4-----4--------|
-----11--------------|--------11-----9----|-----------6--------|--------------------|
--9------------------|-----9------9-------|--------------------|--------------------|
---------------------|--7-----------------|--0-----------------|--4-----------------|


  E  E  E  E   E  E     E  E  E  E  E   E      E  E   E  E   E  E      E   E   E   E   Q
--9-----7------------|--7-----------9--11--|--12-----11------9-----|----------12------16----|
--------------10-----|-----------0---------|--10-----10-----10-----|--12------12------------|
-----9-----9------9--|---------------------|---9--9------9------9--|--13--13------13--------|
---------------------|--------6------------|-----------------------|------------------------|
--0------------------|-----7---------------|---0-------------------|------------------------|
---------------------|--0------------------|-----------------------|---0--------------------|


   Q     E   E   E   E      Q    E  E  E  E     E  E  E  E  E  E     E  E  E  E  E  E
--17------------16--14--|--12----------------|--2-----2--------2--|--4-----------------|
--14----14--16----------|--12----0--2--4--5--|--------4-----------|--5-----------------|
--14--------------------|--13----------------|-----4-----4--------|-----4-----------4--|
------------------------|--------------------|--------------------|--------6-----6-----|
---0--------------------|--------------------|--2-----------2-----|-----------7--------|
------------------------|---0----------------|--------------------|--0-----------------|


  E  E  E  E  E  E     E  E  E  E  E  E     E  E  E  E  E  E     E  E  E  E  E  E
--5-----5-----4--5--|--7--------------7--|--7--6--6-----7--9--|--9-----7-----7--9--|
--5-----5-----------|--5--5-----5--------|--------8-----------|--------------------|
--6--6-----6--------|--4-----4-----4-----|--------6--6--------|-----8-----8--------|
--------------------|--------------------|--------------------|--6-----------------|
--0-----------------|--------------------|--6-----------------|--------------------|
--------------------|--0-----------------|--------------------|--------------------|


                                                                                   |---3--|
   E  E  E  E  E  E     E  E  E  E  E  E     E   E   E   E   E   E     E  E  E  E  E  E  
 E
--10-----9-----7-----|--5-----4-----5--7--|--9----------------------|------------------------|
------7-----7-----7--|-----6-----6--------|---------12------10------|--9-----8-----7--8--10--|
---------------------|--------------------|-------------------------|-----8-----8------------|
---6-----------------|--------------------|-----11------11------11--|------------------------|
---------------------|--4-----------------|--9----------------------|------------------------|
---------------------|--------------------|-------------------------|--7---------------------|


                                   |--3--|
  E  E  E  E  E  E     E  E  E  E  E  E  E     E  E  E  E  E  E     E  E  E  E  E  E
--7-----------5-----|-----------------------|--5-----------------|--0-----------------|
--------0--------8--|--7-----5-----5--7--8--|--------------8--6--|--------3-----0-----|
-----0-----0--------|-----5-----5-----------|--------5-----------|-----0-----0-----0--|
--------------------|-----------------------|-----7-----7--------|--0-----------------|
--7-----------------|--7--------------------|--5-----------------|--------------------|
--------------------|-----------------------|--------------------|--------------------|


  E  E  E  E  E  E     E  E  E  E  E  E     E  E  E  E  E  E     E  E  E  E  E  E
--------3-----------|--------3--------3--|--5-----3-----------|--3--------------3--|
--1--------------1--|--0-----------0-----|--------------6-----|-----1-----1--------|
--------------0-----|-----0-----0--------|-----5-----5-----5--|--------0-----0-----|
-----2-----2--------|--------------------|--3-----------------|--------------------|
--3-----------------|--------------------|--------------------|--------------------|
--------------------|--0-----------------|--------------------|--0-----------------|


  E  E  E  E  E  E     E  E  E  E  E  E     E  E  E  E  E  E     E  E  E  E  E  E
--1-----0-----------|--0-----------------|--------------------|--------------0--3--|
--------------3-----|--------------------|--3-----1-----0-----|--1--------1--------|
-----2-----2-----2--|-----------------2--|-----2-----2-----1--|--------2-----------|
--0-----------------|-----------2--------|--------------------|-----2--------------|
--------------------|-----0--3-----3--0--|--0-----------------|--0-----------------|
--------------------|--0-----------------|--------------------|--------------------|


  E  E  E  E  E  E     E  E  E  E  E  E     E  E  E  E  E  E     E  E  E  E  E  E
--7-----------5-----|--3-----------------|--3-----------------|--2-----------0-----|
--6-----6-----------|--1-----------1-----|--1-----1-----1-----|--1-----1-----------|
--5--5-----5-----5--|--0-----0--------0--|--2--2-----2-----2--|--2--2-----2-----2--|
--3-----------------|--2--2-----2--------|--0-----------------|--0-----------------|
--0-----------------|--0-----------------|--------------------|--------------------|
--------------------|--------------------|--------------------|--------------------|


  Q     Q      Q        E  E  E  E  E  E     E  E  E  E  E  E     E  E  E  E  E  E
---------------------|--------------------|--------------------|--0-----------------|
--3------------------|--------3-----------|--------3--------3--|--------3-----1-----|
--2----(0)----(2)----|--0--------0-----0--|--------------------|-----0-----0-----0--|
--0-----2------4-----|--0-----------0-----|--4--------4--------|--------0-----2-----|
--------3------5-----|--2--2-----------2--|--0--5--------5-----|--3-----------------|
---------------------|--3-----------------|--------------------|--------------------|


  E  E  E  E  E  E     E  E  E  E  E  E     E  E  E  E  Q       E  E  E  E  E  E
--------------0--2--|--3-----2-----0-----|--------3-----7----|--8-----------7--5--|
--3-----------------|--------------------|--3-----3-----8----|--5-----------5-----|
-----------0--------|-----0-----0-----0--|-----0-----0--7----|--5-----5--7--5-----|
--------0-----------|--------0-----2-----|-------------------|--5--5--------0-----|
-----2--------------|--3-----------------|-------------------|--0-----------------|
--3-----------------|--------------------|--3----------------|--------------------|


  E  E  E  E  E  E     E  E  E  E  E  E     E  E  E  E  E  E     E  E  E  E  E  E
--3-----------------|--------------------|--------------------|--------------------|
-----3-----------0--|--------------------|--0--------------0--|--1-----1-----0--1--|
--------4-----0-----|--2-----2-----------|--------0-----------|--------0-----0-----|
-----------0--------|--------0--------0--|--------0-----------|-----0-----2-----2--|
--------------------|-----0--------0-----|-----2--------2-----|--------------------|
--3-----------------|--2--------2--------|--3--------3--------|--3-----------------|


  E  E  E  E  E  E     E  E  E  E  E  E     E  E  E  E  E  E     E  E  E  E  E  E
--------------------|--------------------|--------------------|--------------------|
--3--------------3--|--3--2--2-----3--5--|--5--3--3-----3--5--|--6-----5-----------|
--------0-----0-----|--------3-----------|--------------4-----|--------------7-----|
-----0-----0--------|-----------4--------|-----4-----4--------|-----7-----7-----7--|
--------------------|--------------------|--2-----------------|--5-----------------|
--3-----------------|--2-----------------|--------------------|--------------------|


  E  E  E  E  E  E     E  E  E  E  E  E     E  E  E  E  E  E     E  E  E  E  E  E
--------------------|--------------------|--------------------|--------------------|
--------------------|--5-----------------|--------------------|--------3-----------|
--5-----4-----5--7--|--------7-----5-----|--4-----3-----2-----|--0--------0-----0--|
-----6-----6--------|-----7-----7-----7--|-----0-----0-----0--|--------------0-----|
--------------7-----|--0-----------------|--------------------|-----2-----------2--|
--0-----------------|--------------------|--------------------|--3-----------------|


  E  E  E  E  E  E     E  E  E  E  E  E     E  E  E  E  E  E     Q    Q    E  E
--------------------|--0-----------------|--------------0--2--|--3----3-------5--|
--------3-----------|--------3-----1-----|--3-----------------|--0---------7-----|
--------------------|-----0-----0-----0--|-----------0--------|--0---------------|
--4--------4--------|--------0-----2-----|--------0-----------|--2---------------|
--0--5--------5--0--|--3-----------------|-----2--------------|------------6-----|
--------------------|--------------------|--3-----------------|------------------|


  Q    Q    Q       Q    Q    E   E     E  E  E  E  E  E     E  E  E  E  E  E
--3----3----5----|--7----8----7p--5--|--3-----------------|--------------------|
--3---------5----|--5---------5------|--3-----3-----3-----|--------3-----3-----|
--4---------6----|--5----------------|-----4-----4-----4--|-----4-----4-----4--|
--0--------------|--0----------------|--------------------|--------------------|
-----------------|-------------------|--------------------|--------------------|
-----------------|-------------------|--3-----------------|--3-----------------|


  E  E  E  E  E  E      E  Q     Q.        H.
--------7-----5-----|--10--------7------|--L------------||
--------0-----0-----|---0-------10------|--L------------||
-----------0-----0--|------0-----7------|--L------------||
-----0--------------|------------7------|--L------------||
--------------------|-----------10------|--L------------||
--3-----------------|-------------------|---------------||




Duration Legend
---------------
W - whole
H - half
Q - quarter
E - 8th
S - 16th
T - 32nd
X - 64th
. - note dotted
|-n-|  - n-tuplets


Tablature Legend
----------------
L - tied note
x - dead note
g - grace note
(n) - ghost note
> - accentuded note
NH - natural harmonic
AH - artificial harmonic
TH - tapped harmonic
SH - semi harmonic
PH - pitch harmonic
h - hammer on
p - pull off
b - bend
br - bendRelease
pb - preBend
pbr - preBendRelease
brb - bendReleaseBend
\n/ - tremolo bar dip
\n - tremolo bar dive
-/n - tremolo bar Release up
/n\ - tremolo bar inverted dip
/n - tremolo bar return
-\n - tremolo bar Release down
S - shift slide
s - legato slide
/ -  slide into from below or out of upwards
\ -  slide into from above or out of downwards
~ - vibrato
W - wide vibrato
tr - trill
TP - tremolo picking
T - tapping
S - slap
P - pop
< - fade in
^ - brush up
v - brush down
Добавлено: 28.06.2012
Другие материалы по этой песне:

Страница создана 14.05.2012
http://primanota.ru/joe-hisaishi/reprise-chords.htm
Привет, Гость.
Предлагаем пройти революционный курс по гитаре.
Подарок от PrimaNota.Ru, забирай!