PrimaNota.ru - самый крупный в мире бесплатный архив песенных текстов, аккордов, табулатур и нот


Дассен Джо - Ca Mavance A Quoi - текст песни, бас-таба, видео

Регистрация Запомнить меня
Войти через:  Facebook Google Twitter Vk Yandex Mail.ru

Дассен Джо - Ca Mavance A Quoi - текст песни, бас-таба, видео

Печатать
Просмотров: 327
Bass tabs are the best tabs hurr

-------------------------------------------------------------------------------
		       Ca m'avance a quoi - Joe Dassin
-------------------------------------------------------------------------------

Tabbed By : Chairitable	
e-mail: innuya@gmail.com

Tuning: Standard

G|---------------------------------------------------------------------------|
D|------------------------------------------------------------------1-1-1-1--|
A|---------6-3-4-6-6\4-------6-3-4-6-6-6-6--4-4---4-3-3---3-1-1---1----------|
E|---4-4-4-------------4-4-4--------------------4-------3-------1------------|

G|---------------------------------------------------------------------------|
D|---------------------------------------------------------------------------|
A|-------6-3-4-4-3---------6-3-4-4-3---------------------6-------------------|
E|-4-4-4-----------6-4-4-4-----------6-4--4-4-4-6--6-6-6---------------------|

G|---------------------------------------------------------------------------|
D|------------------------------------------------------------------1-1-1-1--|
A|---------6-3-4-6-6\4-------6-3-4-6-6-6-6--4-4---4-3-3---3-1-1---1----------|
E|---4-4-4-------------4-4-4--------------------4-------3-------1------------|

G|---------------------------------------------------------------------------|
D|---------------------------------------------------------------------------|
A|-------6-3-4-4-3---------6-3-4-4-3---------------------6-6-6-6-------------|
E|-4-4-4-----------6-4-4-4-----------6-4--4-4-4-6--6-6-6---------------------|

G|---------------------------------------------------------------------------|
D|-------------------------------------------------------------1-1-1-1-------|
A|-------3-6-3-4-3---6-----3-3-4-4-6-6-4-4---4-3-3---3-1-1---1---------------|
E|-4-4-4-----------6---4-4-----------------4-------3-------1-----------------|

G|---------------------------------------------------------------------------|
D|---------------------------------------------------------------------------|
A|-------3-6-3-4-4-3---------3-6-3-4-4-3-------6-------8---6-6-8-8-8---------|
E|-4-4-4-------------6-4-4-4-------------6-4-4---4-6-6---6-------------------|

G|---------------------------------------------------------------------------|
D|-----------------------------------------------------------------3-1-0-----|
A|-------5-8-5-6-6-8---------5-8-5-6-6-8---6-6---6-5-5---5-3-3---3-------3-1-|
E|-6-6-6-------------1-6-6-6-------------1-----6-------5-------3-------------|

G|---------------------------------------------------------------------------|
D|--------------1-1-0------------------1-1-0---------------------------------|
A|1-1-1-1-------------3-1-1-1-1--------------3-1-1-1-1-0---------------------|
E|--------1-3-1-----------------1-3-1--------------------3-3-3-3-1-0-1-1-1-1-|
	
G|---------------------------------------------------------------------------|
D|------3-0-1-1-3---------3-0-1-1-3---1-1---1-0-0---0------------------------|
A|1-1-1-------------1-1-1-----------------1-------0---3-3---3----------------|
E|----------------1-----------------1---------------------3---1-1-1-1-1-1-1-1|

G|---------------------------------------------------------------------------|
D|--------------1-1-0-----------------1-1-0----------------------------------|
A|1-1-1-1-------------3-1-1-1-1-------------3-1-1-1-1-0---------1-3-3-3-3----|
E|--------1-3-1-----------------1-3-1-------------------3-3-3-3-----------3--|

G|---------------------------------------------------------------------------|
D|---------------------------------------------------------------------------|
A|--------------------------------1------------------------------------------|
E|1-1-1-1-1-1-1-1-1-1-1-1-1-1-1-1--------------------------------------------|


| /  slide up
| \  slide down
| h  hammer-on
| p  pull-off
| ~  vibrato
| +  harmonic
| x  Mute note
===============================================================================
Добавлено: 15.03.2012
Другие материалы по этой песне:
  • Аккорды и текст

Страница создана 15.03.2012
http://primanota.ru/joe-dassin/ca-mavance-a-quoi-chords.htm
Привет, Гость.
Предлагаем пройти революционный курс по гитаре.
Подарок от PrimaNota.Ru, забирай!