PrimaNota.ru - самый крупный в мире бесплатный архив песенных текстов, аккордов, табулатур и нот


Joe Cocker - The Simple Things - текст песни, бас-таба, видео

Регистрация Запомнить меня
Войти через:  Facebook Google Twitter Vk Yandex Mail.ru

Joe Cocker - The Simple Things - текст песни, бас-таба, видео

Печатать
Просмотров: 242
joe cocker_the simple things

TablEdited by Jan Bjorklund    jani_bjorklund@yahoo.se>
You are welcome to request for tabs!
Fingering and positions as suggested by TablEdit, please use common sense.


TablEdited by Jan Bjorklund
Tuning : E A D G 	Time Signature: 4/4

   |               |               |               |
|------------------------------------------------------------------|
|------------------------------------------------------------------|
|------------------------------------------------------------------|
|-----------2/14----------------------2-------2--------------------|

   |               |               |               |
|------------------------------------------------------------------|
|------------------------------------------------------------------|
|------------------------------------------------------------------|
|---2---------2---2-------------------------2-------2--------------|

   |               |               |               |
|------------------------------------------------------------------|
|-------------------------------------------------1-------1--------|
|------------------------------------------------------------------|
|-----------2-------2---2------------------------------------------|

   |               |               |               |
|------------------------------------------------------------------|
|-----------------1-------1---1------------------------------------|
|-------------------------------------------------------4-------4--|
|------------------------------------------------------------------|

   |               |               |               |
|------------------------------------------------------------------|
|------------------------------------------------------------------|
|-----------------------4-------4---4-------4---------1------------|
|-------------------------------------------------------------2----|

   |               |               |               |
|------------------------------------------------------------------|
|------------------------------------------------------------------|
|------------------------------------------------------------------|
|-------2---------------------2-------2---2------------------------|

   |               |               |               |
|------------------------------------------------------------------|
|------------------------------------------------------------------|
|------------------------------------------------------------------|
|-2-----------2---------------------2-------2---2------------------|

   |               |               |               |
|------------------------------------------------------------------|
|---------1---------1---------------------1-------1---1------------|
|------------------------------------------------------------------|
|------------------------------------------------------------------|

   |               |               |               |
|------------------------------------------------------------------|
|------------------------------------------------------------------|
|---------------4---------4---------------------4-------4---4/16---|
|------------------------------------------------------------------|

   |               |               |               |
|------------------------------------------------------------------|
|------------------------------------------------------------------|
|-----4---1--------------------------------------------------------|
|-------------4-------2---------2---------------------2-------2----|

   |               |               |               |
|------------------------------------------------------------------|
|------------------------------------------------------------------|
|------------------------------------------------------------------|
|-2-------------------------2---------2---------------------2------|

   |               |               |               |
|------------------------------------------------------------------|
|---------------------------------1---------1----------------------|
|------------------------------------------------------------------|
|---2---2----------------------------------------------------------|

   |               |               |               |
|------------------------------------------------------------------|
|-1-----------1----------------------------------------------------|
|---------------------------------------4---------4----------------|
|------------------------------------------------------------------|

   |               |               |               |
|------------------------------------------------------------------|
|-----------------------------------------------1------------------|
|-------4---------4-4/--16----4-------1----------------------------|
|------------------------------------------------------------------|

   |               |               |               |
|------------------------------------------------------------------|
|-----------------3-----------------------------------4------------|
|------------------------------------------------------------------|
|------------------------------------------------------------------|

   |               |               |               |
|------------------------------------------------------------------|
|------------------------------------------------------------------|
|-----------------------2-----------------------------------4------|
|------------------------------------------------------------------|

   |               |               |               |
|------------------------------------------------------------------|
|------------------------------------------------------------------|
|---4---------------------4---------4---4-----------1---1----------|
|------------------------------------------------------------------|

   |               |               |               |
|-----------------------------------------------------1/--13--6----|
|------------------------------------------------------------------|
|-4-------4---------------------4---------4---4--------------------|
|------------------------------------------------------------------|

   |               |               |               |
|------------------------------------------------------------------|
|-------1-----------------------------1---------1---1--------------|
|------------------------------------------------------------------|
|------------------------------------------------------------------|

   |               |               |               |
|------------------------------------------------------------------|
|------------------------------------------------------------------|
|-------------3-----------------------------3---------3---3--------|
|------------------------------------------------------------------|

   |               |               |               |
|------------------------------------------------------------------|
|------------------------------------------------------------------|
|------------------------------------------------------------------|
|-------------------3-----------------------------3---------3---3--|

   |               |               |               |
|------------------------------------------------------------------|
|------------------------------------------------------------------|
|-------------------------1-------------------------------1--------|
|------------------------------------------------------------------|

   |               |               |               |
|------------------------------------------------------------------|
|-------------------------------1-------------------------------1--|
|-1---1------------------------------------------------------------|
|------------------------------------------------------------------|

   |               |               |               |
|------------------------------------------------------------------|
|-------1---1------------------------------------------------------|
|-------------------------------------3----------------------------|
|------------------------------------------------------------------|

   |               |               |               |
|------------------------------------------------------------------|
|------------------------------------------------------------------|
|-----3-------3---3------------------------------------------------|
|-------------------------------------------3----------------------|

   |               |               |               |
|------------------------------------------------------------------|
|------------------------------------------------------------------|
|-------------------------------------------------1----------------|
|-----------3-------3---3------------------------------------------|

   |               |               |               |
|------------------------------------------------------------------|
|------------------------------------------------------------------|
|-----------------1-------1---1------------------------------------|
|-------------------------------------------------------4----------|

   |               |               |               |
|------------------------------------------------------------------|
|------------------------------------------------------------------|
|------------------------------------------------------------------|
|-----------------------4-------4---4-------------------------1----|

   |               |               |               |
|------------------------------------------------------------------|
|------------------------------------------------------------------|
|------------------------------------------------------------------|
|-----------------------------1-------1---1------------------------|

   |               |               |               |
|------------------------------------------------------------------|
|------------------------------------------------------------------|
|---3-------------------------------3-------3---3------------------|
|------------------------------------------------------------------|

   |               |               |               |
|------------------------------------------------------------------|
|------------------------------------------------------------------|
|---------2-------------------------------2-------2---2------------|
|------------------------------------------------------------------|

   |               |               |               |
|------------------------------------------------------------------|
|------------------------------------------------------------------|
|---------------1-------------------------------1-------1---1------|
|------------------------------------------------------------------|

   |               |               |               |
|------------------------------------------------------------------|
|------------------------------------------------------------------|
|---------------------1-------------------------------1-------1----|
|------------------------------------------------------------------|

   |               |               |               |
|------------------------------------------------------------------|
|------------------------------------------------------------------|
|-1-----------------1/--13----4------------------------------------|
|------------------------------------------------------------------|



Created with TablEdit http://www.tabledit.com/

     
Добавлено: 04.06.2013
Другие материалы по этой песне:
  • Аккорды и текст

Страница создана 02.04.2012
http://primanota.ru/joe-cocker/the-simple-things-chords.htm
Привет, Гость.
Предлагаем пройти революционный курс по гитаре.
Подарок от PrimaNota.Ru, забирай!