PrimaNota.ru - самый крупный в мире бесплатный архив песенных текстов, аккордов, табулатур и нот


Joe Cocker - You And I - текст песни, таба, видео

Регистрация Запомнить меня
Войти через:  Facebook Google Twitter Vk Yandex Mail.ru

Joe Cocker - You And I - текст песни, таба, видео

Печатать
Просмотров: 295
Уроки эстрадного вокала в Санкт-Петербурге
                                          You and I  - Stevie Wonder
                                   Version Joe Cocker CD "Organic" 1995
Acoustic Guitar: Dean Parks

Tabbed by: Rudolf Veit
E-Mail: rveit@web.de


Intro:

     G          C/G               Cm6/G                     G          C/G           Cm6/G
E||----------------------------|-------------------------|-------3----------------|-------------------------|
B||--0--------------------1----|-------------3-----1-----|--0--------------1------|---------------3----1----|
G||-------0--------------------|--------2-------------2--|------------------------|--------2----2-----------|
D||----------0--------2--------|--1-------------1--------|----------0--2----------|--1--------1-------------|
A||-----------------3----------|--3----------------------|-------------3----------|--3----------------------|
E||--3----------3--------------|--3----------------------|--3----------3----------|--3----------------------|

Verse 1:

  G           Am/G             Cm6/G                          G            Am/G
----------------------------|------------------------------|---------3--------------------|
--0-------------------1-----|------------------------1-----|--0---------------------1-----|
--------0-------------2-----|-----------2----------2-------|-----0----------------2-------|
-----0-----0-------2-----2--|--------1-----1-----1------1--|-------0----0-------2------2--|
----------------------------|------------------------------|------------------------------|
--3-----------3-------------|--3--------------3------------|--3------------3--------------|


  Cm6/G                         F#m7add11          B9+              E7M
-----------------------------|-----------------------------------|----------4-----------------|
--------------------------1--|--0--------------------------3-----|--4----------4--------------|
-----------2-----------2-----|---------------2-----------2-------|--4-----4----------4-----6--|
--------1-----1-----1--------|------------2-----2------1---------|------6---------6-----6-----|
-----------------------------|---------------------2----------2--|----------------------------|
--3--------------3-----------|--2--------------------------------|--0-------------------------|


  G#m7          Ddim             F#m7/5-           C6               D7sus4            D
------------------------------|----------------------------------|-------------3------2----------|
--4-------------3-------------|--------------1------------1------|-----------1------1-------3----|
----------4-------------4-----|------------2----2-------2--------|---------2------2--------------|
-------4-----4-------3-----3--|----------2------------2----------|--0--------------------0-------|
----------------5-------------|--------------------3---------2-3-|-------------------------------|
--4---------------------------|--2-------------------------------|-------------------------------|

Verse 2:

  G7M          Am/G              Cm6/G                           G7M           Am/G
------------------------------|-------------------3-----------|-------------------------------|
--0------3--------------1-----|------------1---------------1--|----------3--------------1-----|
----------------------2-------|----------2------2-------2-----|--------4--------------2-------|
------4-----4-------2------2--|--------1------1------1--------|------4------4-------2------2--|
------------------------------|-------------------------------|-------------------------------|
--3------------3--------------|--3----------------------------|--3-------------3--------------|


  Cm6/G                           F#m7add11          B9+              E7M
-------------------3-----------|--------------------------------3--|--4--------------------------|
------------1---------------1--|--0--------------------------3-----|--4----------4----5-7--4-----|
----------2------2-------2-----|---------------2-----------2-------|--4-------4---------------4--|
--------1------1------1--------|------------2-----2------1---------|--------6-------6------------|
-------------------------------|---------------------2-------------|-----------------------------|
--3----------------------------|--2--------------------------------|------0----------------------|


  G#m7          Ddim             F#m7/5-           C6               D7sus4
------------------------------|----------------------------------|---------3------0--2-----------|
----------4-------------3-----|--------------1------------1------|--------------1----3-----3-----|
-------4-----4-------4--------|------------2----2-------2------2-|------------2---------2--------|
--4-------------3----------3--|----------2------------2------2---|--0-------------------------0--|
----------------5-------------|--------------------3-------------|-------------------------------|
--4---------------------------|--2-------------------------------|-------------------------------|

Refrain 1:

  Am                         Cm6/G                         Gsus2
--------------------------|-----------------------------|--------------------3-----------|
--------1-----------1-----|-----------------1-----1-----|--------------0-----------------|
--------2-----------2-----|-----------2--------------2--|-----------2-------------2------|
-----2-----2-----2-----2--|--------1-----1-----1--------|--------0--------------0---0h-2-|
--0-----------0-----------|--3--------------------------|--------------------------------|
--------------------------|-----------------------------|--3--------------3--------------|


  Eadd9-          E7             A7add13          A7             D7sus4          D
---------------0--------------|-------------2-----0-----------|------------3-----2----------|
------------0-----------3-----|-------------2-----2-----2-----|------------------------3----|
---------1-----------1--------|----------------0--------0-----|---------2-----2-----2-------|
--3---------------2--------2--|----------2-----------2-----2--|--0--------------------------|
------------------------------|--0----------------------------|-----------------------------|
------------------------------|-------------------------------|-----------------------------|

Interlude 1:                                        Verse 3:

  G7M                                                  G7M       C              Cm
--7-------------------|---------------10--8---------|--7---------------------|--------------------------|
--7-------------------|------------8---------8--10--|--7------3--5-----------|--4-----------4-----4-----|
--0----0--7--9--------|-------7-8-------------------|--0---------5----5----5-|-------5----5-5-----5-----|
----------------------|--10-------------------------|------------5-------5---|----------5------5-----5--|
----------------------|-----------------------------|------------------------|--------------------------|
----------------------|-----------------------------|------------------------|--------------------------|


  G7M           Am             Cm6/G                         F#m7add11         B9+
----------2-----------------|-----------------------------|--------------------------------|
--3-----3-3--3--------1-----|-----------1--------1-----1--|--0------------0-----------3----|
--4---4------4-----2--------|--------2-----2--------2-----|--------------------------------|
----------------2--------2--|--1--------------1-----------|------------2-----------1-------|
----------------------------|-----------------------------|--------------------2-----------|
--3-------------------------|-----------------------------|--2-----------------------------|


  E7M                           G#m7          Ddim              F#m7/5-          C6
--4----------------4---------|-------------------------------|---------------------------------|
--4-------4----------4-------|----------4--------------3-----|--1-------------1---------1------|
--4-----4----4---------4-----|-------4-----------------4-----|--2----------2----------2--------|
------6---------6---------6--|--4----------4---------3----3--|----------2-----------2----------|
-----------------------------|----------------5----5---------|-------------------3---------2-3-|
-----------------------------|--4----------------------------|--2------------------------------|

                                Verse 4:

  D7sus4            D             G7M          Am/G              Cm6/G
-------------3------2----------|------------------------------|-------------------------------|
-----------1------1-3-----3----|--3---------------------1-----|------------1-----------1------|
---------2------2--------------|---------4------------2-2-----|----------2----2-----2----2----|
--0--------------------0-------|------4-----4-------2------2--|--------1---------1---------1--|
-------------------------------|------------------------------|-------------------------------|
-------------------------------|--3------------3--------------|--3----------------------------|


  G7M          Am/G              Cm6/G                          F#m7add11            B9+
------------------------------|------------------------------|---------------------------------3------|
--3---------------------1-----|------------1-----1--------1--|----------------0--------------3---3----|
---------4------------2-2-----|----------2----2--------2-----|--------------2---2----------2-------2--|
------4-----4-------2------2--|--------1------------1--------|------------2-------2------1------------|
------------------------------|------------------------------|-----------------------2----------------|
--3------------3--------------|--3---------------------------|--2-------------------------------------|


  E7M                             G#m7            Ddim              F#m7/5-            C6
--4-------4--------------------|---------------------------------|-----------------------------------|
--4-----4---4--------4---------|-----------4------3--------3-----|------------1---------------1------|
------4-------4----4-----4-----|---------4---4----4------4-4-----|----------2------2--------2--------|
-----------------6-----6----6--|-------4-------4-------3------3--|--------------2---------2----------|
-------------------------------|------------------5--------------|-------------------2-3---------2-3-|
--0----------------------------|--4------------------------------|--2--------------------------------|

                                   Refrain 2:

  D7sus4            D                Am                         Cm
-------------3------2------2-0----|--------------------------|--------3-----------3-----|
-----------1-1----3-3----3-3---3--|--------1--------1--------|--------4-----------4-----|
---------2------2------2----------|--------2--------2--2-----|-----------5-----------5--|
--0-------------------------------|-----2-----2-----------2--|-----5-----------5--------|
----------------------------------|--0-----------0-----------|--3-----------3-----------|
----------------------------------|--------------------------|--------------------------|


  Gsus2                         Eadd9-           E7            A7add13         A7
-----------------------------|-------------------0----------|---------------------------------|
-----------0-----------------|-----------0-3--0--------0----|---------------0-----------------|
--------------2-----0--------|---------1------------1-------|------------0-----0--------0-----|
--------0--------0-----0--2--|--3---------------------------|----------2----------2--------2--|
-----------------------------|------------------------------|--0---------------------4--------|
--3--------------------------|------------------------------|---------------------------------|

                            Interlude 2:

  D7sus4          D           G7M                         Dm             Em/G
-----------0------2--------|--------------------2------|--------------------------------|
---------1-----1--3--------|----------3------3----3----|--6------6--/10--8--------8-----|
------------------2--------|-------4-------4--------4--|--7----7----------------9----9--|
--0---------------0--------|-------------4-------------|--7--7---7--/10--9----9---9-----|
---------------------------|---------------------------|--------------------------------|
---------------------------|--3------------------------|--------------------------------|

Refrain 3:

  C7M                          Cm                            Gsus2
 --3-------3-----------------|-----------3-----------------|-------------------------------|
----------5-----------5-----|---------4----4--------4-----|------------0-----0----------0--|
--------4-------------4-----|-------5---------5-----------|----------0---0-----------2-----|
------5------5-----5-----5--|-----5--------------5-----5--|--------0-------0------0--------|
--3-------------3-----------|--3--------------------------|--------------------------------|
----------------------------|-----------------------------|--3-----------------3-----------|

                                                                      End:

  Eadd9-           E7                 A7add13        A7                 D9-
-----------------------------0-----|--------------2-------2-----0----|---------5-----------5-----|
--0----------0--------0------0-----|--------------2-------2-----2----|---------4--4-----4-----4--|
---------1-------1----1----1----1--|------------0-------0-------0----|------5-----------5--------|
--3--------3---3---3-----2---------|----------2------2-------2-------|--0------------0-----------|
-----------------------------------|--0------------------------------|---------------------------|
-----------------------------------|---------------------------------|---------------------------|


  Bb6                               Bb7M                          F7M       D7sus4         G7M
----------3----------------------|--------------------1--------|--0---------3------0----|-------------------||
--------3---3---3------1-3-1---1-|-----------3-----------3-----|--1----1----1-----------|--3----------------||
------0-------0------0-------0---|---------2----2-----------2--|--2---------2-----------|--4----------------||
---------------------------------|-------3---------3-----------|--3---------0-----------|--4----------------||
--1---------------1--------------|--1--------------------------|------------------------|-------------------||
---------------------------------|-----------------------------|------------------------|--3----------------||

You And I
(Version Joe Cocker CD "Organic" 1995)


Intro: ||: G    C/G    Cm6/G  :||


Verse 1:

G        Am/G
 Here we are,
Cm6/G
 On earth together,
     G       Am/G
It's you and I,
Cm6/G
 God has made us,
F#m7add9 B9+       E7M
Fall in love, it's true.
G#m7
I've really found,
Dmin         F#m7/-5    C6    D7sus4    D
Someone like you.

Verse 2:

G7M      Am/G
 Will it stay?
Cm6/G
 The love you feel for me;
G7M      Am/G
 Will it say?
Cm6/G                   F#m7add9
 That you will be by my side,
B9+               E7M
To see me through?
G#m7         Ddim
 Until my life,
   F#m7/-5    C6   D7sus4    D
Is through?


Refrain 1:

Am
 In my mind,
Cm6/G                 Gsus2    Eadd9-
 We can conquer the world,
   E7           A7add13    A7
In love you and I,
        D7sus4   D          G7M
you and I,          you and I.


Interlude 1:
G7M


Verse 3:

G7M   C
 I am glad,
Cm
 At least in my life,
G7M         Am
I found someone,
Cm6/G
 That may not be here,
   F#m7/add11  B9+         E7M
Forever          to see me through.
G#m7          Ddim
  But I found strength,
   F#m7/-5   C6   D7sus4    D
In you.

Verse 4:

G7M     Am/G
 I only pray,
Cm6/G
 That I have shown you,
G7M         Am/G
 A brighter day.
Cm6/G
 Because that's all that
F#m7add11  B9+      E7M
I'm living for, you see.
G#m7
 Don't worry
Ddim            F#m7/-5   C6   D7sus4    D
what happens to me.


Refrain 2:

Am
 Cause' in my mind
Cm                    Gsus2     Eadd9-
 you will stay here always,
   E7           A7add13   A7
In love you and I,
        D7su4   D          G7M
you and I,         you and I

Interlude 2:
G7M  Dm7   Em/G

Refrain 3:

C7M
 Well, in my mind,
Cm                  Gsus2     Eadd9-
 We can conquer the world,
   E7           A7add13    A7
In love you and I,

End:

        D9-        Bb6    Bb7M      F7M       D7sus4     G7M
you and I, you and I.
Добавлено: 26.05.2015
Другие материалы по этой песне:

Страница создана 28.05.2012
http://primanota.ru/joe-cocker/you-and-i-chords.htm
Привет, Гость.
Предлагаем пройти революционный курс по гитаре.
Подарок от PrimaNota.Ru, забирай!