PrimaNota.ru - самый крупный в мире бесплатный архив песенных текстов, аккордов, табулатур и нот


Joe Cocker - Take Your Clothes Off - бас-таба, видео

Регистрация Запомнить меня
Войти через:  Facebook Google Twitter Vk Yandex Mail.ru

Joe Cocker - Take Your Clothes Off - бас-таба, видео

Печатать
Просмотров: 144
joe cocker_take_your_clothes_off

TablEdited by Jan Bjorklund    jani_bjorklund@yahoo.se>
You are welcome to request for tabs!
Fingering and positions as suggested by TablEdit, please use common sense.


TablEdited by Jan Bjorklund
Tuning : E A D G 	Time Signature: 4/4

   |               |               |               |
|------------------------------------------------------------------|
|------------------------------------------------------------------|
|-------------------------------------------------2-------4--------|
|------------------------------------------------------------------|

   |               |               |               |
|------------------------------------------------------------------|
|-2-----------------------2----------------------------------------|
|-----------------4-----------------------4-------2-------4--------|
|------------------------------------------------------------------|

   |               |               |               |
|------------------------------------------------------------------|
|-2-----------------------2----------------------------------------|
|-----------------4-----------------------4-------2-------4--------|
|------------------------------------------------------------------|

   |               |               |               |
|------------------------------------------------------------------|
|-2-----------------------2----------------------------------------|
|-----------------4-----------------------4-------2-------4--------|
|------------------------------------------------------------------|

   |               |               |               |
|------------------------------------------------------------------|
|------------------------------------------------------------------|
|-----0---2--------------------------------------------------------|
|-4----------------------------------------------------------------|

   |               |               |               |
|------------------------------------------------------------------|
|-----------------3-------2-------3--------------------------------|
|-4-----------------------------------------------1-------4--------|
|-----------------------------------------4------------------------|

   |               |               |               |
|------------------------------------------------------------------|
|-----------------3-------2-------3--------------------------------|
|-------------------------------------------------1-------4--------|
|-----------------------------------------4------------------------|

   |               |               |               |
|------------------------------------------------------------------|
|-----------------3-------2-------3--------------------------------|
|-------------------------------------------------1-------4--------|
|-----------------------------------------4------------------------|

   |               |               |               |
|------------------------------------------------------------------|
|-----------------3-------2-------3--------------------------------|
|-------------------------------------------------1-------4--------|
|-----------------------------------------4------------------------|

   |               |               |               |
|------------------------------------------------------------------|
|-----------------3-------2-------3--------------------------------|
|-------------------------------------------------1-------4--------|
|-----------------------------------------4------------------------|

   |               |               |               |
|------------------------------------------------------------------|
|-----------------3-------2-------3--------------------------------|
|-------------------------------------------------1-------4--------|
|-----------------------------------------4------------------------|

   |               |               |               |
|------------------------------------------------------------------|
|-----------------3-------2-------3--------------------------------|
|-------------------------------------------------1-------4--------|
|-----------------------------------------4------------------------|

   |               |               |               |
|-----------------1-------0-------1--------------------------------|
|------------------------------------------------------------------|
|-------------------------------------------------1-------4--------|
|-----------------------------------------4------------------------|

   |               |               |               |
|------------------------------------------------------------------|
|-----------------3-------2-------3--------------------------------|
|-------------------------------------------------1-------4--------|
|-----------------------------------------4------------------------|

   |               |               |               |
||-----------------------------------------------------------------|
|*----------------3-------2-------3--------------------------------|
|*------------------------------------------------1-------4--------|
||----------------------------------------4------------------------|

   |               |               |               |
|-----------------------------------------------------------------||
|-----------------3-------2-------3-------------------------------||
|-------------------------------------------------1-------4-------||
|-----------------------------------------4-----------------------||

 >1|               |               |               |
|-----------------4-------3-------4-------------------------------||
|-----------------------------------------------------------------*|
|-------------------------------------------------1-------4-------*|
|-----------------------------------------4-----------------------||

 >2|               |               |               |
|------------------------------------------------------------------|
|-----------------3-------2-------3--------------------------------|
|-------------------------------------------------1-------4--------|
|-----------------------------------------4------------------------|

   |               |               |               |
|-----------------1-------0-------1--------------------------------|
|------------------------------------------------------------------|
|-------------------------------------------------1----------------|
|-----------------------------------------4------------------------|

   |               |               |               |
|------------------------------------------------------------------|
|------------------------------------------------------------------|
|-4----------------------------------------------------------------|
|------------------------------------------------------------------|

   |               |               |               |
|------------------------------------------------------------------|
|-3----------------------------------------------------------------|
|------------------------------------------------------------------|
|------------------------------------------------------------------|

   |               |               |               |
|------------------------------------------------------------------|
|-4----------------------------------------------------------------|
|------------------------------------------------------------------|
|------------------------------------------------------------------|

   |               |               |               |
|-1-------1--------------------------------------------------------|
|------------------------------------------------------------------|
|------------------------------------------------------------------|
|------------------------------------------------------------------|

   |               |               |               |
|------------------------------------------------------------------|
|-----------------3-------2-------3--------------------------------|
|-4-----------------------------------------------1-------4--------|
|-----------------------------------------4------------------------|

   |               |               |               |
|-----------------4-------3-------4--------------------------------|
|------------------------------------------------------------------|
|-------------------------------------------------1-------4--------|
|-----------------------------------------4-------4----------------|

   |               |               |               |
|------------------------------------------------------------------|
|-----------------3-------2-------3--------------------------------|
|-------------------------------------------------1-------4--------|
|-----------------------------------------4------------------------|

   |               |               |               |
|------------------------------------------------------------------|
|-----------------3-------2-------3--------------------------------|
|-------------------------------------------------1-------4--------|
|-----------------------------------------4------------------------|

   |               |               |               |
|------------------------------------------------------------------|
|-----------------3-------2-------3--------------------------------|
|-------------------------------------------------1-------4--------|
|-----------------------------------------4------------------------|

   |               |               |               |
||-----------------------------------------------------------------|
|*----------------3-------2-------3--------------------------------|
|*------------------------------------------------1-------4--------|
||----------------------------------------4------------------------|

   |               |               |               |
|-----------------------------------------------------------------||
|-----------------3-------2-------3-------------------------------||
|-------------------------------------------------1-------4-------||
|-----------------------------------------4-----------------------||

 >1|               |               |               |
|------------------------------------------------------------------|
|-----------------3-------2-------3--------------------------------|
|-------------------------------------------------1-------4--------|
|-----------------------------------------4------------------------|

   |               |               |               |
|------------------------------------------------------------------|
|-----------------3-------2-------3--------------------------------|
|-------------------------------------------------1-------4--------|
|-----------------------------------------4------------------------|

   |               |               |               |
|-----------------4-------3-------4--------------------------------|
|------------------------------------------------------------------|
|-------------------------------------------------1-------4--------|
|-----------------------------------------4------------------------|

   |               |               |               |
|-----------------------------------------------------------------||
|-----------------3-------2-------3-------------------------------*|
|-------------------------------------------------1-------4-------*|
|-----------------------------------------4-----------------------||

 >2|               |               |               |
|------------------------------------------------------------------|
|-----------------3-------2-------3--------------------------------|
|-------------------------------------------------1----------------|
|-----------------------------------------4------------------------|

   |               |               |               |
|------------------------------------------------------------------|
|-----------------3-------2-------3--------------------------------|
|-4-----------------------------------------------1-------4--------|
|-----------------------------------------4------------------------|

   |               |               |               |
|------------------------------------------------------------------|
|-----------------3-------2-------3--------------------------------|
|-------------------------------------------------1-------2--------|
|-----------------------------------------4------------------------|

   |               |               |               |
|------------------------------------------------------------------|
|---------------------------------1--------------------------------|
|-2---------------------------------------4-------2----------------|
|---------------------------------------------------------2--------|

   |               |               |               |
|------------------------------------------------------------------|
|------------------------------------------------------------------|
|---------------------------------4-------2---------------4--------|
|-------------------------------------------------2----------------|

   |               |               |               |
|------------------------------------------------------------------|
|-----------------3-------2-------3--------------------------------|
|-------------------------------------------------1-------4--------|
|-----------------------------------------4------------------------|

   |               |               |               |
|------------------------------------------------------------------|
|-----------------3-------2-------3--------------------------------|
|-------------------------------------------------1-------2--------|
|-----------------------------------------4------------------------|

   |               |               |               |
|------------------------------------------------------------------|
|---------------------------------1--------------------------------|
|-----------------------------------------4-------2----------------|
|---------------------------------------------------------2--------|

   |               |               |               |
|------------------------------------------------------------------|
|------------------------------------------------------------------|
|---------------------------------4-------2---------------4--------|
|-------------------------------------------------2----------------|

   |               |               |               |
|------------------------------------------------------------------|
|-----------------3-------2-------3--------------------------------|
|-------------------------------------------------1-------4--------|
|-----------------------------------------4------------------------|

   |               |               |               |
|------------------------------------------------------------------|
|-----------------3-------2-------3--------------------------------|
|-------------------------------------------------1-------2--------|
|-----------------------------------------4------------------------|

   |               |               |               |
|------------------------------------------------------------------|
|---------------------------------1--------------------------------|
|-----------------------------------------4-------2----------------|
|---------------------------------------------------------2--------|

   |               |               |               |
|------------------------------------------------------------------|
|------------------------------------------------------------------|
|---------------------------------4-------2---------------4--------|
|-------------------------------------------------2----------------|

   |               |               |               |
|------------------------------------------------------------------|
|-----------------3-------2-------3--------------------------------|
|-------------------------------------------------1-------4--------|
|-----------------------------------------4------------------------|

   |               |               |               |
|------------------------------------------------------------------|
|-----------------3-------2-------3--------------------------------|
|-------------------------------------------------1-------2--------|
|-----------------------------------------4------------------------|

   |               |               |               |
|------------------------------------------------------------------|
|---------------------------------1--------------------------------|
|-----------------------------------------4-------2----------------|
|---------------------------------------------------------2--------|

   |               |               |               |
|------------------------------------------------------------------|
|------------------------------------------------------------------|
|---------------------------------4-------2---------------4--------|
|-------------------------------------------------2----------------|

   |               |               |               |
|------------------------------------------------------------------|
|-----------------3-------2-------3--------------------------------|
|-------------------------------------------------1-------4--------|
|-----------------------------------------4------------------------|

 >4|               |               |               |
|-----------------4-------3-------4-------------------------------||
|-----------------------------------------------------------------*|
|-------------------------------------------------1-------4-------*|
|-----------------------------------------4-----------------------||

   |               |               |               |
|------------------------------------------------------------------|
|-----------------3-------2-------3--------------------------------|
|-4-----------------------------------------------1-------4--------|
|-----------------------------------------4------------------------|

   |               |               |               |
|-----------------4-------3-------4--------------------------------|
|------------------------------------------------------------------|
|-------------------------------------------------1-------4--------|
|-----------------------------------------4------------------------|

   |               |               |               |
|------------------------------------------------------------------|
|------------------------------------------------------------------|
|-------------------------------------------------2-------4--------|
|------------------------------------------------------------------|

   |               |               |               |
|------------------------------------------------------------------|
|-2-----------------------2----------------------------------------|
|-----------------4-----------------------4-------2-------4--------|
|------------------------------------------------------------------|

   |               |               |               |
|------------------------------------------------------------------|
|------------------------------------------------------------------|
|-------------------------------------------------2-------4--------|
|------------------------------------------------------------------|

   |               |               |               |
|------------------------------------------------------------------|
|-2-----------------------2----------------------------------------|
|-----------------4-----------------------4-------2-------4--------|
|------------------------------------------------------------------|

   |               |               |               |
|------------------------------------------------------------------|
|------------------------------------------------------------------|
|-------------------------------------------------2-------4--------|
|------------------------------------------------------------------|

   |               |               |               |
|------------------------------------------------------------------|
|-2-----------------------2----------------------------------------|
|-----------------4-----------------------4-------2-------4--------|
|------------------------------------------------------------------|

   |               |               |               |
|------------------------------------------------------------------|
|------------------------------------------------------------------|
|-2----------------------------------------------------------------|
|------------------------------------------------------------------|




Created with TablEdit http://www.tabledit.com/

     
Добавлено: 08.06.2013
Другие материалы по этой песне:
  • Аккорды и текст

Страница создана 08.06.2013
http://primanota.ru/joe-cocker/take-your-clothes-off-chords.htm
Привет, Гость.
Предлагаем пройти революционный курс по гитаре.
Подарок от PrimaNota.Ru, забирай!