PrimaNota.ru - самый крупный в мире бесплатный архив песенных текстов, аккордов, табулатур и нот


Joe Cocker - I Keep Forgetting - текст песни, бас-таба, видео

Регистрация Запомнить меня
Войти через:  Facebook Google Twitter Vk Yandex Mail.ru

Joe Cocker - I Keep Forgetting - текст песни, бас-таба, видео

Печатать
Просмотров: 202


I Keep Forgetting.btab
Joe Cocker
TablEdited by Poppamies
Tuning : E A D G 	Time Signature: 4/4

 tempo 96|       |       |        |       |       |       |
|--------------------------------|--------------------------------|
|--------------------------------|------------------------2---4---|
|--------------------------------|--------------------4-----------|
|--------------------------------|2-----------2-------------------|

 |       |       |       |        |       |       |       |
|--------------------------------|--------------------------------|
|------------------------2---4---|------------------------2---4---|
|--------------------4-----------|--------------------4-----------|
|2-----------2-------------------|2-----------2-------------------|

 |       |       |       |        |       |       |       |
|--------------------------------|--------------------------------|
|--------------------------------|------------------------2---4---|
|--------------------------------|--------------------4-----------|
|2-------------------------------|2-----------2-------------------|

 |       |       |       |        |       |       |       |
|--------------------------------|------------------------4---6---|
|------------------------2---4---|--------------------6-----------|
|--------------------4-----------|4-----------4-------------------|
|2-----------2-------------------|--------------------------------|

 |       |       |       |        |       |       |       |
|------------------------4---6---|--------------------------------|
|--------------------6-----------|------------------------2---4---|
|4-----------4-------------------|--------------------4-----------|
|--------------------------------|2-----------2-------------------|

 |       |       |       |        |       |       |       |
|--------------------------------|--------------------------------|
|------------------------2---4---|----------------------------7---|
|--------------------4-----------|--------------------7---9-------|
|2-----------2-------------------|5-----------5-------------------|

 |       |       |       |        |       |       |       |
|--------------------------------|--------------------------------|
|------------------------7---7---|--------------------------------|
|--------------------7-----------|5-----------4-------------------|
|5-----------5-------------------|----------------------------5---|

 |       |       |       |        |       |       |       |
|--------------------------------|--------------------------------|
|--------------------------------|--------------------------------|
|5-----------4-------4-----------|5-----------5---4-------4-------|
|----------------------------5---|--------5-----------------------|

 |       |       |       |        |       |       |       |
|--------------------------------|--------------------------------|
|--------------------------------|--------------------------------|
|----------------------------4---|5-----------4-----------4-------|
|2-----------2---2---2---5-------|----------------------------5---|

 |       |       |       |        |       |       |       |
|--------------------------------|--------------------------------|
|--------------------------------|--------------------------------|
|5-----------4-------4-----------|5-----------5---4-------4-------|
|----------------------------5---|--------5-----------------------|

 |       |       |       |        |       |       |       |
|--------------------------------|--------------------------------|
|--------------------------------|------------------------2---4---|
|--------------------------------|--------------------4-----------|
|2-------------------------------|2-----------2-------------------|

 |       |       |       |        |       |       |       |
|--------------------------------|------------------------4---6---|
|--------------------------------|--------------------4h6---------|
|--------------------------------|4-----------4-------------------|
|2-----------2-------------------|--------------------------------|

 |       |       |       |        |       |       |       |
|------------------------4---6---|--------------------------------|
|--------------------6-----------|------------------------2---4---|
|4-----------4-------------------|--------------------4-----------|
|--------------------------------|2-----------2-------------------|

 |       |       |       |        |       |       |       |
|--------------------------------|--------------------------------|
|------------------------2---4---|----------------------------6h7-|
|--------------------4-----------|--------------------7---9-------|
|2-----------2-------------------|5-----------5-------------------|

 |       |       |       |        |       |       |       |
|--------------------------------|--------------------------------|
|7---7---5---5-------------------|--------------------------------|
|----------------7---7---6---6---|5-----------4-------4---4-------|
|--------------------------------|----------------------------5---|

 |       |       |       |        |       |       |       |
|--------------------------------|--------------------------------|
|--------------------------------|--------------------------------|
|5-----------4-------4---4-------|5-----------5---4-------4-------|
|----------------------------5---|--------5-----------------------|

 |       |       |       |        |       |       |       |
|--------------------------------|--------------------------------|
|--------------------------------|--------------------------------|
|------------------------4---4---|5-----------4-----------4-------|
|2---2---4---4---5---5-----5-----|----------------------------5---|

 |       |       |       |        |       |       |       |
|--------------------------------|--------------------------------|
|--------------------------------|--------------------------------|
|5-----------4---------------4---|5-----------5---4-------4-------|
|--------5---------------5-------|--------5-----------------------|

 |       |       |       |        |       |       |       |
|--------------------------------|--------------------------------|
|--------------------------------|------------------------2---4---|
|--------------------------------|--------------------4-----------|
|2-------------------------------|2-----------2-------------------|

 |       |       |       |        |       |       |       |
|--------------------------------|--------------------------------|
|--------------------------------|------------------------2---4---|
|--------------------------------|--------------------4-----------|
|2-------------------------------|2-----------2-------------------|

 |       |       |       |        |       |       |       |
|--------------------------------|--------------------------------|
|--------------------------------|------------------------2---4---|
|--------------------------------|--------------------4-----------|
|2-------------------------------|2-----------2-------------------|

 |       |       |       |
|--------------------------------|
|--------------------------------|
|--------------------------------|
|2-------------------------------|


Transcribe  6.0 transcription http://www.seventhstring.demon.co.uk/
Created with TablEdit http://www.tabledit.com/
http://www.geocities.com/jani_bjorklund/janis.html


Добавлено: 27.12.2013
Другие материалы по этой песне:
  • Аккорды и текст

Страница создана 18.12.2013
http://primanota.ru/joe-cocker/i-keep-forgetting-chords.htm
Привет, Гость.
Предлагаем пройти революционный курс по гитаре.
Подарок от PrimaNota.Ru, забирай!