PrimaNota.ru - самый крупный в мире бесплатный архив песенных текстов, аккордов, табулатур и нот


Joao Gilberto - Desafinado - таба, видео

Регистрация Запомнить меня
Войти через:  Facebook Google Twitter Vk Yandex Mail.ru

Joao Gilberto - Desafinado - таба, видео

Печатать
Просмотров: 43
Авторы музыки: Antônio Carlos Jobim
Авторы текста: Newton Mendonça
                                  ~~~~~~~~~~~~~~~~~~~~~~~~~~~~~~~~~~~~~~~~
                                                Desafinado       
                                              Joao Gilberto
                                           Live Grandes Nomes 1980  
                                  ~~~~~~~~~~~~~~~~~~~~~~~~~~~~~~~~~~~~~~~~
Tabbed by: Connor O.
Tuning: Standard
YT Link: https://www.youtube.com/watch?v=GCpqVP6vswg



Comment or message any ideas or corrections. Please rate my tab. If you've got
problems with the tab, I'd encourage you to contact me with those problems so I
can fix the tab or provide advice for playing. Don't just give me a poor rating
and not give me any feedback. The idea is for us all to work together to create
a perfect finished product. This tab just represents the best I can do. It's 
definitely up for peer review.



Key:
     *  - beat progression.




Intro:




e|-----------------------------------------------------------------|
B|-2---2---2---2---2---2-----2---2---2-----2---2---2---2-----2---2-|
G|-2---2---2---2---2---2-----2---2---2-----2---2---2---2-----2---2-|
D|-0---0---0---0---0---0-----0---0---0-----0---0---0---0-----0---0-|
A|-----------------------------------------------------------------|
E|-2-------2-------2-------2-------2-------2-------2-------2-------|
   *   *   *   *   *   *   *   *   *   *   *   *   *   *   *   * 


Verse 1:




e|-------------------------------2---2-----2---2---2---2-----2---2-|
B|---2-----2---2---2---2-----2---3---3-----3---3---3---3-----3---3-|
G|---2-----2---2---2---2-----2---1---1-----1---1---1---1-----1---0-|
D|---0-----0---0---0---0-----0-------------------------------------|
A|-----------------------------------------------------------------|
E|-2-------2-------2-------2-------0-------0-------0-------0-------|
   *   *   *   *   *   *   *   *   *   *   *   *   *   *   *   * 



e|---2-----2---2-------------------------------------------------2-|
B|---3-----3---3-----------------1---1-----1---1---1---1-----1---3-|
G|---0-----0---0---1---1-----1---2---2-----2---2---2---2-----2---1-|
D|-----------------0---0-----0---2---2-----2---2---1---1-----1-----|
A|-----------------------------------------------------------------|
E|-0-------0-------1-------1-------2-------2-------2-------2-------|
   *   *   *   *   *   *   *   *   *   *   *   *   *   *   *   * 



e|---2-----2---2-------------------------------------------------2-|
B|---3-----3---3---3---3-----3---2---2-----2---2---1---1-----1---3-|
G|---1-----1---1---3---3-----3---3---3-----3---3---2---2-----2---1-|
D|-----------------2---2-----2---1---1-----1---1---1---1-----1-----|
A|---------------------------------2-------2-------2-------2-------|
E|-0-------0-------2-------2---------------------------------------|
   *   *   *   *   *   *   *   *   *   *   *   *   *   *   *   * 



e|---2-----2---2---2---2-----2-------------------------------------|
B|---3-----3---3---3---3-----3---3---3---3-----3---1---1-----1---2-|
G|---1-----1---1---1---1-----1---3---3---3-----3---3---3-----3---2-|
D|-------------------------------1---1---1-----1---1---1-----1---0-|
A|-----------------------------------------------------------------|
E|-0-------0-------0-------0-------3-------3-------3-------3-------|
   *   *   *   *   *   *   *   *   *   *   *   *   *   *   *   * 


Verse 2:




e|-------------------------------2---2---2-2---2---2---2-----2---2-|
B|---2-----2---2---2---2-----2---3---3---3-3---3---3---3-----3---3-|
G|---2-----2---2---2---2-----2---1---1---1-1---1---1---1-----1---0-|
D|---0-----0---0---0---0-----0-------------------------------------|
A|-----------------------------------------------------------------|
E|-2-------2-------2-------2-------0-------0-------0-------0-------|
   *   *   *   *   *   *   *   *   *   *   *   *   *   *   *   * 



e|---2-----2---2-------------------------------------------------2-|
B|---3-----3---3-----------------1---1---1-----1---1---1-----1---3-|
G|---0-----0---0---1---1-----1---2---2---2-----2---2---2-----2---1-|
D|-----------------0---0-----0---2---2---2-----2---1---1-----1-----|
A|-----------------------------------------------------------------|
E|-0-------0-------1-------1-------2-------2-------2-------2-------|
   *   *   *   *   *   *   *   *   *   *   *   *   *   *   *   * 



e|---2-----2---2---------------------------------------------------|
B|---3-----3---3---3---3-----3-----2---2------2----3---3-----3---2-|
G|---1-----1---1---3---3-----3-----2---2------2----4---4-----4---3-|
D|-----------------2---2-----2-----0---0------0----3---3-----3---3-|
A|---------------------------------2-------2-----------------------|
E|-0-------0-------2-------2-----------------------4-------4-------|
   *   *   *   *   *   *   *   *   *   *   *   *   *   *   *   * 



e|-------------------------------------------------2---2-----2-----|
B|---2---2-2---2---2---2-----2---2---2---2-----2---2---2-----2---2-|
G|---3---3-3---3---2---2-----2---1---1---1-----1---0---0-----0---3-|
D|---3---3-3---3---1---1-----1---0---0---0-----0-----------------3-|
A|-------------------------------------------------0-------0-------|
E|-2-------2-------1-------1-------0-------0-----------------------|
   *   *   *   *   *   *   *   *   *   *   *   *   *   *   *   * 


Build Up:




e|-------------------------------------------------5---5-----5-----|
B|---2---2-----2---2---2-----2---4---4---4-----4---3---3-----3---2-|
G|---3---3-----3---3---3-----3---4---4---4-----4---4---4-----4---3-|
D|---3---3-----3---2---2-----2---4---4---4-----4---3-------3-----3-|
A|-----------------------------------------------------------------|
E|-2-------2-------3-------3-------4-------4-----------------------|
   *   *   *   *   *   *   *   *   *   *   *   *   *   *   *   * 



e|---------------------------------------------------------------0-|
B|---2---2-----2---2---2-----2---2---2---2-----2---2---2-----2---2-|
G|---3---3-----3---3---3-----3---2---2---2-----2---1---1-----1---1-|
D|---3---3-----3---2---2-----2---0---0---0-----0---0---0-----0-----|
A|-----------------------------------------------------------------|
E|-2-------2-------3-------3-------2-------2-------1-------1-------|
   *   *   *   *   *   *   *   *   *   *   *   *   *   *   *   * 



e|---0---0-----0-----------------2---2---2-----2-------------------|
B|---2---2-----2---2---2-----2---3---3---3-----3---2---2-----2-----|
G|---1---1-----1---0---0-----0---2---2---2-----2---1---1-----1-----|
D|-----------------2---2-----2---------------------0---0-----0-----|
A|-0-------0-------1-------1-------2-------2-----------------------|
E|-------------------------------------------------0-------0-------|
   *   *   *   *   *   *   *   *   *   *   *   *   *   *   *   * 



e|-3---3-----3-----3---3-----3-----2---2-----2-------------------0-|
B|-3---3-----3-----4---4-----4-----3---3-----3-----2---2-----2---2-|
G|-0---0-----0-----2---2-----2-----1---1-----1-----0---0-----0---2-|
D|-----------------------------------------------------------------|
A|-----------------3-------3-----------------------0-------0-------|
E|-0-------0-----------------------0-------0-----------------------|
   *   *   *   *   *   *   *   *   *   *   *   *   *   *   *   * 


Release:



e|---0-----0---0---0---0-----0---2---2---2-----2---2---2-----2---2-|
B|---2-----2---2---2---2-----2---3---3---3-----3---3---3-----3---3-|
G|---2-----2---2---2---2-----2---1---1---1-----1---1---1-----1---0-|
D|-0-------0-------0-------0---------------------------------------|
A|-----------------------------------------------------------------|
E|---------------------------------0-------0-------0-------0-------|
   *   *   *   *   *   *   *   *   *   *   *   *   *   *   *   * 



e|---2-----2---2---2---2-----2-------------------------------------|
B|---3-----3---3---2---2-----2---1---1---1-----1---1---1-----1---3-|
G|---0-----0---0---0---0-----0---2---2---2-----2---2---2-----2---0-|
D|-------------------------------2---2---2-----2---1---1-----1---4-|
A|-----------------0-------0---------------------------------------|
E|-0-------0-----------------------2-------2-------2-------2-------|
   *   *   *   *   *   *   *   *   *   *   *   *   *   *   *   * 



e|---------------------------------------------------------------2-|
B|---3---3-----3---3---3-----3---2---2---2-----2---0---0-----0---3-|
G|---0---0-----0---3---3-----3---2---2---2-----2---1---1-----1---1-|
D|---4---4-----4---2---2-----2---2---2---2-----2---0---0-----0-----|
A|-----------------------------------------------------------------|
E|-3-------3-------3-------2-------2-------2-------1-------1-------|
   *   *   *   *   *   *   *   *   *   *   *   *   *   *   *   * 



e|-----2-----2-----2---2-----2-----------------------------------2-|
B|-----3-----3-----3---3-----3---3---3---3-----3---1---1-----1---3-|
G|-----1-----1-----1---1-----1---3---3---3-----3---3---3-----3---1-|
D|-------------------------------1---1---1-----1---1---1-----1-----|
A|-----------------------------------------------------------------|
E|-0-------0-------0-------0-------3-------3-------3-------3-------|
   *   *   *   *   *   *   *   *   *   *   *   *   *   *   *   * 



e|-----2-----2-----2-----------------------------------------------|
B|-----3-----3-----3-----2---2---5---5---5-----5---5---5-----5---2-|
G|-----1-----1-----1-----0---0---4---4---4-----4---4---4-----4---2-|
D|-------------------------------4---4---4-----4---4---4-----4---0-|
A|-------------------------0-------5-------5-------5-------5-------|
E|-0-------0-------0-----------------------------------------------|
   *   *   *   *   *   *   *   *   *   *   *   *   *   *   *   *


Repeat:




Verse 1:




e|---------------------------------2---2-----2-----2---2-----2-----|
B|---2---2-----2---2---2-----2-----3---3-----3-----3---3-----3-----|
G|---2---2-----2---2---2-----2-----1---1-----1-----1---1-----1-----|
D|---0---0-----0---0---0-----0-------------------------------------|
A|-----------------------------------------------------------------|
E|-2-------2-------2-------2-------0-------0-0-----0-------0-------|
   *   *   *   *   *   *   *   *   *   *   *   *   *   *   *   * 



e|-2---2-----2-----------------------------------------------------|
B|-3---3-----3---------------------1---1-----1-----1---1-----1-----|
G|-0---0-----0-----1---1-----1-----2---2-----2-----2---2-----2-----|
D|-----------------0---0-----0-----2---2-----2-----1---1-----1-----|
A|-----------------------------------------------------------------|
E|-0-------0-------1-------1-------2-------2-------2-------2-------|
   *   *   *   *   *   *   *   *   *   *   *   *   *   *   *   * 



e|-2---2-----2-----------------------------------------------------|
B|-3---3-----3-----3---3-----3-----2---2-----2-----1---1-----1---3-|
G|-1---1-----1-----3---3-----3-----3---3-----3-----2---2-----2---1-|
D|-----------------2---2-----2-----1---1-----1-----1---1-----1-----|
A|---------------------------------2-------2-------2-------2-------|
E|-0-------0-------2-------2---------------------------------------|
   *   *   *   *   *   *   *   *   *   *   *   *   *   *   *   * 



e|---2-----2---2---2---2-----2-------------------------------------|
B|---3-----3---3---3---3-----3---3---3---3-----3---3---3-----3---2-|
G|---1-----1---1---1---1-----1---3---3---3-----3---3---3-----3---2-|
D|-------------------------------1---1---1-----1---1---1-----1---0-|
A|-----------------------------------------------------------------|
E|-0-------0-------0-------0-------3-------3-------3-------3-------|
   *   *   *   *   *   *   *   *   *   *   *   *   *   *   *   * 


Verse 2:



e|-------------------------------2---2-----2---2---2---2-----2---2-|
B|---2-----2---2---2---2-----2---3---3-----3---3---3---3-----3---3-|
G|---2-----2---2---2---2-----2---1---1-----1---1---1---1-----1---0-|
D|---0-----0---0---0---0-----0-------------------------------------|
A|-----------------------------------------------------------------|
E|-2-------2-------2-------2-------0-------0-------0-------0-------|
   *   *   *   *   *   *   *   *   *   *   *   *   *   *   *   * 



e|---2-----2---2---------------------------------------------------|
B|---3-----3---3-----------------1---1-----1---1---1---1-----1---3-|
G|---0-----0---0---1---1-----1---2---2-----2---2---2---2-----2---1-|
D|-----------------0---0-----0---2---2-----2---2---1---1-----1-----|
A|-----------------------------------------------------------------|
E|-0-------0-------1-------1-------2-------2-------2-------2-------|
   *   *   *   *   *   *   *   *   *   *   *   *   *   *   *   * 



e|---2-----2---2---------------------------------------------------|
B|---3-----3---3---3---3-----3---2---2-----2---2---3---3-----3---2-|
G|---1-----1---1---3---3-----3---2---2-----2---2---4---4-----4---3-|
D|-----------------2---2-----2---0---0-----0---0---3---3-----3---3-|
A|---------------------------------2-------2-----------------------|
E|-0-------0-------2-------2-----------------------4-------4-------|
   *   *   *   *   *   *   *   *   *   *   *   *   *   *   *   * 



e|-------------------------------------------------2---2-----2-----|
B|---2-----2---2---2---2-----2-----2---2-----2-----2---2-----2---2-|
G|---3-----3---3---2---2-----2-----1---1-----1-----0---0-----0---3-|
D|---3-----3---3---1---1-----1-----0---0-----0-------------------3-|
A|-------------------------------------------------0-------0-------|
E|-2-------2-------1-------1-------0-------0-----------------------|
   *   *   *   *   *   *   *   *   *   *   *   *   *   *   *   * 


Build Up:




e|-----------------------------------------------------------------|
B|---2---2-----2---2---2-----2---4---4---4-----4---5/6-6-----6---2-|
G|---3---3-----3---3---3-----3---4---4---4-----4---4/5-5-----5---3-|
D|---3---3-----3---2---2-----2---4---4---4-----4---4---4-----4---3-|
A|-------------------------------------------------0-------0-------|
E|-2-------2-------3-------3-------4-------4-----------------------|
   *   *   *   *   *   *   *   *   *   *   *   *   *   *   *   * 



e|-------------------------------------------------1---1-----1---0-|
B|---2-----2---2---2---2-----2---2---2-----2---2---2---2-----2---2-|
G|---3-----3---3---3---3-----3---2---2-----2---2---1---1-----1---1-|
D|---3-----3---3---2---2-----2---0---0-----0---0---0-------0-------|
A|-----------------------------------------------------------------|
E|-2-------2-------3-------3-------2-------2-----------------------|
   *   *   *   *   *   *   *   *   *   *   *   *   *   *   *   * 



e|---0-----0---0-----------------2---2-----2---2-----------------3-|
B|---2-----2---2---2---2-----2---3---3-----3---3---2---2-----2---3-|
G|---1-----1---1---0---0-----0---2---2-----2---2---1---1-----1---0-|
D|-----------------2---2-----2---------------------0---0-----0-----|
A|-0-------0-------1-------1-------2-------2-----------------------|
E|-------------------------------------------------0-------0-------|
   *   *   *   *   *   *   *   *   *   *   *   *   *   *   *   * 



e|---3-----3---3---3---3-----3-----2---2-----2---------------------|
B|---3-----3---3---4---4-----4-----3---3-----3-----2---2-----2---5-|
G|---0-----0---0---2---2-----2-----1---1-----1-----0---0-----0---4-|
D|---------------------------------------------------------------4-|
A|-----------------3-------3-----------------------0-------0-------|
E|-0-------0-----------------------0-------0-----------------------|
   *   *   *   *   *   *   *   *   *   *   *   *   *   *   *   * 


Release:



e|-------------------------------2---2-----2---2---2---2-----2---2-|
B|---5-----5---5---5---5-----5---3---3-----3---3---3---3-----3---3-|
G|---4-----4---4---4---4-----4---1---1-----1---1---1---1-----1---0-|
D|---4-----4---4---4---4-----4-------------------------------------|
A|-5-------5-------5-------5---------------------------------------|
E|---------------------------------0-------0-------0-------0-------|
   *   *   *   *   *   *   *   *   *   *   *   *   *   *   *   * 



e|---2-----2---2---2---2-----2-------------------------------------|
B|---3-----3---3---2---2-----2---1---1-----1---1---1---1-----1---3-|
G|---0-----0---0---0---0-----0---2---2-----2---2---2---2-----2---0-|
D|-------------------------------2---2-----2---2---1---1-----1---4-|
A|-----------------0-------0---------------------------------------|
E|-0-------0-----------------------2-------2-------2-------2-------|
   *   *   *   *   *   *   *   *   *   *   *   *   *   *   *   * 



e|---------------------------------------------------------------2-|
B|---3---3-----3---3---3-----3---2---2---2-----2---0---0-----0---3-|
G|---0---0-----0---3---3-----3---2---2---2-----2---1---1-----1---1-|
D|---4---4-----4---2---2-----2---2---2---2-----2---0---0-----0-----|
A|-----------------------------------------------------------------|
E|-3-------3-------3-------2-------2-------2-------1-------1-------|
   *   *   *   *   *   *   *   *   *   *   *   *   *   *   *   * 



e|-----2-----2-----2---2-----2-----------------------------------2-|
B|-----3-----3-----3---3-----3---3---3---3-----3---3---3-----3---3-|
G|-----1-----1-----1---1-----1---3---3---3-----3---3---3-----3---1-|
D|-------------------------------1---1---1-----1---1---1-----1-----|
A|-----------------------------------------------------------------|
E|-0-------0-------0-------0-------3-------3-------3-------3-------|
   *   *   *   *   *   *   *   *   *   *   *   *   *   *   *   * 



e|-----2-----2-----2-----------------------------------------------|
B|-----3-----3-----3-----2---2---5---5---5-----5-------5-----------|
G|-----1-----1-----1-----0---0---4---4---4-----4-------6-----------|
D|-------------------------------4---4---4-----4-------4-----------|
A|-------------------------0-------5-------5-----------5-----------|
E|-0-------0-------0-----------------------------------------------|
   *   *   *   *   *   *   *   *   *   *   *   *   *   *   *   *
Добавлено: 03.06.2016
Другие материалы по этой песне:
  • Аккорды и текст

Страница создана 03.06.2016
http://primanota.ru/joao-gilberto/desafinado-chords.htm
Привет, Гость.
Предлагаем пройти революционный курс по гитаре.
Подарок от PrimaNota.Ru, забирай!