PrimaNota.ru - самый крупный в мире бесплатный архив песенных текстов, аккордов, табулатур и нот


Joao Gilberto - Isto Aqui O Que É - таба, видео

Регистрация Запомнить меня
Войти через:  Facebook Google Twitter Vk Yandex Mail.ru

Joao Gilberto - Isto Aqui O Que É - таба, видео

Печатать
Просмотров: 65
                                  ~~~~~~~~~~~~~~~~~~~~~~~~~~~~~~~~~~~~~~~~
                                   Isto Aqui o Que é ? (Sandália de Prata)
                                               Joao Gilberto                                    
                                           Composed by Ary Barroso       
                                  ~~~~~~~~~~~~~~~~~~~~~~~~~~~~~~~~~~~~~~~~
Tabbed by: Connor O.
Tuning: Standard
 
Transcribed from a live recording of Joao playing live in 2000.
https://www.youtube.com/watch?v=0QNNchd9pI0

Comment or message any ideas or corrections. Please rate my tab. If you've got
problems with the tab, I'd encourage you to contact me with those problems so I
can fix the tab or provide advice for playing. Don't just give me a poor rating
and not give me any feedback. The idea is for us all to work together to create
a perfect finished product. This tab just represents the best I can do. It's 
definitely up for peer review.



Key:
 *  - beat progression.



Intro:



e|---------------------------------------------------------------2-|
B|-------------------------------------------------2---2-----2---4-|
G|-------------------------------------------------1---1-----1---3-|
D|-------------------------------------------------1---1-----1-----|
A|-----------------------------------------------------------------|
E|-------------------------------------------------2-------2-------|
   *   *   *   *   *   *   *   *   *   *   *   *   *   *   *   *  


Verse 1:


  0:02

e|---2---2-----2---2---2-----2-----------------------------------4-|
B|---4---4-----4---4---4-----4---2---2---2-----2---2---2-----2---5-|
G|---3---3-----3---3---3-----3---3---3---3-----3---1---1-----1---6-|
D|-------------------------------1---1---1-----1---0---0-----0-----|
A|-2-------2-------2-------2-------2-------2-----------------------|
E|-------------------------------------------------1-------1-------|
   *   *   *   *   *   *   *   *   *   *   *   *   *   *   *   *   

  0:07
 
e|---4---4-----4---4---------4---4---4-----------------------------|
B|---5---5-----5---5---5-----5---5---5---5-----5---4---4-----4---2-|
G|---6---6-----6---5---5-----5---4---4---4-----4---4---4-----4---4-|
D|---------------------6-----------------6-----6---2---2-----2---2-|
A|-4-------4-------4-------4-------4-------4-------4-------4-------|
E|-----------------------------------------------------------------|
   *   *   *   *   *   *   *   *   *   *   *   *   *   *   *   *  

   

e|-----------------------------------------------------------------|
B|---2---2-----2---2---2-----2---4---4---4-----4---4---4-4---4---2-|
G|---4---4-----4---4---4-----4---3---3---3-----3---3---3-3---3---3-|
D|---2---2-----2---2---2-----2---2---2---2-----2---2---2-2---2---1-|
A|-----------------------------------------------------------------|
E|-4-------4-------4-------4-------3-------3-------3-------3-------|
   *   *   *   *   *   *   *   *   *   *   *   *   *   *   *   *  

  0:18

e|-----------------------------------------------------------------|
B|-----2-----2---4-----4-----4---7-----7-----7-----7---7-----7---5-|
G|-----3-----3---3-----3-----3---6-----6-----6-----6---6-----6---5-|
D|-----1-----1---4-----4-----4---7-----7-----7-----7---7-----7---4-|
A|-2-------2-------2-------2-------6-------6-------6-------6-------|
E|-----------------------------------------------------------------|
   *   *   *   *   *   *   *   *   *   *   *   *   *   *   *   *  

   

e|-----------------------------------------------------------------|
B|---5---5-----5---5---5-----5---2---2---2-----2---2---2-----2---2-|
G|---5---5-----5---5---5-----5---4---4---4-----4---4---4-----4---0-|
D|---4---4-----4---4---4-----4---2---2---2-----2---2---2-----2-----|
A|-----------------------------------------------------------------|
E|-4-------4-------4-------4-------4-------4-------4-------4-------|
   *   *   *   *   *   *   *   *   *   *   *   *   *   *   *   *   

  0:29

e|-------------------------------2---2---2-----2-------------------|
B|---2---2-----2---2---2-----2---4---4---4-----4---4---4-----4---2-|
G|---0---0-----0---0---0-----0---3---3---3-----3---5---5-----5---4-|
D|-------------------------------------------------4---4-----4---2-|
A|---------------------------------2-------2-----------------------|
E|-0-------0-------0-------0-----------------------4-------4-------|
   *   *   *   *   *   *   *   *   *   *   *   *   *   *   *   *  

   
 
e|---------------------------------------------------------------2-|
B|---2---2-----2---4---4-----4---2---2---2-2-2---2-2-2---2---2---4-|
G|---4---4-----4---3---3-----3---1---1---1-1-1---1-1-1---1---1---3-|
D|---2---2-----2---2---2-----2---1---1---1-1-1---1-1-1---1---1-----|
A|-----------------------------------------------------------------|
E|-4-------4-------3-------3-------2-------2-------2-------2-------|
   *   *   *   *   *   *   *   *   *   *   *   *   *   *   *   *


Verse 2:
  

  0:39

e|---2---2-----2---2---2-----2---4---4---4-----4---4---4-----4---4-|
B|---4---4-----4---4---4-----4---4---4---4-----4---3---3-----3---5-|
G|---3---3-----3---3---3-----3---4---4---4-----4---4---4-----4---6-|
D|---------------------------------4-------4-------3-------3-------|
A|-2-------2-------2-------2---------------------------------------|
E|-----------------------------------------------------------------|
   *   *   *   *   *   *   *   *   *   *   *   *   *   *   *   *   

   

e|---4---4-----4---4---4-----4---4---4---4-----4-------------------|
B|---5---5-----5---5---5-----5---5---5---5-----5---4---4-----4---2-|
G|---6---6-----6---5---5-----5---4---4---4-----4---4---4-----4---4-|
D|-------------------------------------------------2---2-----2---2-|
A|-4-------4-------4-------4-------4-------4-------4-------4-------|
E|-----------------------------------------------------------------|
   *   *   *   *   *   *   *   *   *   *   *   *   *   *   *   *  

  0:49

e|-----------------------------------------------------------------|
B|---2---2-----2---2---2-----2---4---4---4-----4---4---4-----4---2-|
G|---4---4-----4---4---4-----4---3---3---3-----3---3---3-----3---3-|
D|---2---2-----2---2---2-----2---2---2---2-----2---2---2-----2---1-|
A|-----------------------------------------------------------------|
E|-4-------4-------4-------4-------3-------3-------3-------3-------|
   *   *   *   *   *   *   *   *   *   *   *   *   *   *   *   *  

   

e|-----------------------------------------------------------------|
B|---2---2-2-2---4-4-4---4---4---7-----7-----7-----7---7-----7---5-|
G|---3---3-3-3---3-3-3---3---3---6-----6-----6-----6---6-----6---5-|
D|---1---1-1-1---4-4-4---4---4---7-----7-----7-----7---7-----7---4-|
A|-2-------2-------2-------2-------6-------6-------6-------6-------|
E|-----------------------------------------------------------------|
   *   *   *   *   *   *   *   *   *   *   *   *   *   *   *   *  

  1:00

e|-----------------------------------------------------------------|
B|---5---5-----5---5---5-----5---2---2---2-----2---2---2-----2---2-|
G|---5---5-----5---5---5-----5---4---4---4-----4---4---4-----4---0-|
D|---4---4-----4---4---4-----4---2---2---2-----2---2---2-----2-----|
A|-----------------------------------------------------------------|
E|-4-------4-------4-------4-------4-------4-------4-------4-------|
   *   *   *   *   *   *   *   *   *   *   *   *   *   *   *   *   
 


e|-------------------------------6---6---6-----6-------------------|
B|---2---2-----2---2---2-----2---7---7---7-----7---4---4-----4---2-|
G|---0---0-----0---0---0-----0---6---6---6-----6---5---5-----5---4-|
D|-------------------------------------------------4---4-----4---2-|
A|---------------------------------6-------6-----------------------|
E|-0-------0-------0-------0-----------------------4-------4-------|
   *   *   *   *   *   *   *   *   *   *   *   *   *   *   *   *  


Breakdown:


  1:10

e|-------------------------------------------------2---2-----2---4-|
B|---2---2-----2---4---4-----4---2---2---2-----2---4---4-----4---5-|
G|---4---4-----4---3---3-----3---1---1---1-----1---3---3-----3---4-|
D|---2---2-----2---2---2-----2---1---1---1-----1-------------------|
A|-----------------------------------------------------------------|
E|-4-------4-------3-------3-------2-------2-------2-------2-------|
   *   *   *   *   *   *   *   *   *   *   *   *   *   *   *   *  

   

e|---4---4-----4-----------------2---2---2-----2---4---4-----4-----|
B|---5---5-----5---3---3-----3---4---4---4-----4---3---3-----3---4-|
G|---4---4-----4---3---3-----3---3---3---3-----3---4---4-----4---4-|
D|-----------------2---2-----2---------------------3-------3-----2-|
A|-4-------4-----------------------2-------2-----------------------|
E|-----------------2-------2---------------------------------------|
   *   *   *   *   *   *   *   *   *   *   *   *   *   *   *   *  

  1:20

e|---------------------------------------------------------------4-|
B|---4---2-----2---3---3-----3---2---2---2-----2---2---2-----2---5-|
G|---4---4-----4---3---3-----3---3---3---3-----3---1---1-----1---4-|
D|---2---2-----2---2---2-----2---1---1---1-----1---0---0-----0-----|
A|---------------------------------2-------2-----------------------|
E|-4-------4-------2-------2-----------------------1-------1-------|
   *   *   *   *   *   *   *   *   *   *   *   *   *   *   *   *   



e|---4---4-----4---------------------------------------------------|
B|---5---5-----5---8---8-----8---7---7---7-----7---5---5-----5---2-|
G|---4---4-----4---8---8-----8---6---6---6-----6---5---5-----5---4-|
D|-----------------8---8-----8---7---7---7-----7---4---4-----4---2-|
A|-4-------4-------7-------7-------6-------6-----------------------|
E|-------------------------------------------------4-------4-------|
   *   *   *   *   *   *   *   *   *   *   *   *   *   *   *   *  

  1:31

e|-------------------------------------------------4---4-----4---4-|
B|---2---2-----2---4---4-----4---4---4---4-----4---3---3-----3---5-|
G|---4---4-----4---3---3-----3---3---3---3-----3---4---4-----4---4-|
D|---2---2-----2---2---2-----2---4---4---4-----4---3-------3-------|
A|---------------------------------2-------2-----------------------|
E|-4-------4-------3-------3---------------------------------------|
   *   *   *   *   *   *   *   *   *   *   *   *   *   *   *   *  



e|---4---4-----4---------------------------------------------------|
B|---5---5-----5---8---8-----8---7---7---7-----7---5---5-----5---2-|
G|---4---4-----4---8---8-----8---6---6---6-----6---5---5-----5---4-|
D|-----------------8---8-----8---7---7---7-----7---4---4-----4---2-|
A|-4-------4-------7-------7-------6-------6-----------------------|
E|-------------------------------------------------4-------4-------|
   *   *   *   *   *   *   *   *   *   *   *   *   *   *   *   * 

  1:41

e|-----------------------------------------------------------------|
B|---2---2-----2---4---4-----4---2-----2-----2---4-----4-----4---2-|
G|---4---4-----4---3---3-----3---3-----3-----3---3-----3-----3---3-|
D|---2---2-----2---2---2-----2---1-----1-----1---4-----4-----4---1-|
A|---------------------------------2-------2-------2-------2-------|
E|-4-------4-------3-------3---------------------------------------|
   *   *   *   *   *   *   *   *   *   *   *   *   *   *   *   *  


Verse 3:


  

e|---------------------------------------------------------------4-|
B|---2---2-----2---2---2-----2---4---4---4-----4---2---2-----2---5-|
G|---3---3-----3---3---3-----3---3---3---3-----3---1---1-----1---6-|
D|---1---1-----1---1---1-----1---4---4---4-----4---0---0-----0-----|
A|-2-------2-------2-------2-------2-------2-----------------------|
E|-------------------------------------------------1-------1-------|
   *   *   *   *   *   *   *   *   *   *   *   *   *   *   *   *   

  1:51
 
e|---4---4-----4---4---4-----4-------------------------------------|
B|---5---5-----5---5---5-----5---4---4---4-----4---2---2-----2---2-|
G|---6---6-----6---5---5-----5---4---4---4-----4---4---4-----4---4-|
D|-------------------------------2---2---2-----2---2---2-----2---2-|
A|-4-------4-------4-------4-------4-------4-----------------------|
E|-------------------------------------------------4-------4-------|
   *   *   *   *   *   *   *   *   *   *   *   *   *   *   *   *  

   

e|-----------------------------------------------------------------|
B|---2---2-----2---2---2-----2---4---4-----4---4---4---4-----4---2-|
G|---4---4-----4---4---4-----4---3---3-----3---3---3---3-----3---3-|
D|---2---2-----2---2---2-----2---2---2-----2---2---2---2-----2---1-|
A|-----------------------------------------------------------------|
E|-4-------4-------4-------4-------3-------3-------3-------3-------|
   *   *   *   *   *   *   *   *   *   *   *   *   *   *   *   *  

  2:01

e|-----------------------------------------------------------------|
B|---2-----2---2---4---4-----4---7---7-----7---7---7---7-----7---5-|
G|---3-----3---3---3---3-----3---6---6-----6---6---6---6-----6---5-|
D|---1-----1---1---4---4-----4---7---7-----7---7---7---7-----7---4-|
A|-----------------2-------2-------6-------6-------6-------6-------|
E|-2-------2-------------------------------------------------------|
   *   *   *   *   *   *   *   *   *   *   *   *   *   *   *   *  

   

e|---------------------------------------------------------------7-|
B|---5---5-----5---5---5-----5---2---2---2-----2---2---2-----2---8-|
G|---5---5-----5---5---5-----5---4---4---4-----4---4---4-----4---6-|
D|---4---4-----4---4---4-----4---2---2---2-----2---2---2-----2-----|
A|-----------------------------------------------------------------|
E|-4-------4-------4-------4-------4-------4-------4-------4-------|
   *   *   *   *   *   *   *   *   *   *   *   *   *   *   *   *   

  2:11

e|---7---7-----7---7---7-----7---6---6---6-----6-------------------|
B|---8---8-----8---8---8-----8---7---7---7-----7---4---4-----4---2-|
G|---6---6-----6---6---6-----6---6---6---6-----6---5---5-----5---4-|
D|-------------------------------------------------4---4-----4---2-|
A|-7-------7-------7-------7-------6-------6-----------------------|
E|-------------------------------------------------4-------4-------|
   *   *   *   *   *   *   *   *   *   *   *   *   *   *   *   *  

 

Breakdown:


  

e|-----------------------------------------------2-----2-----2---4-|
B|---2---2-----2---4---4-----4---2-----2-----2---4-----4-----4---5-|
G|---4---4-----4---3---3-----3---1-----1-----1---3-----3-----3---4-|
D|---2---2-----2---2---2-----2---1-----1-----1---------------------|
A|-----------------------------------------------------------------|
E|-4-------4-------3-------3-------2-------2-------2-------2-------|
   *   *   *   *   *   *   *   *   *   *   *   *   *   *   *   *  

  2:21

e|---4---4-----4-----------------------------------4---4-----4---4-|
B|---5---5-----5---3---3-----3---2---2---2-----2---3---3-----3---5-|
G|---4---4-----4---3---3-----3---3---3---3-----3---4---4-----4---4-|
D|-----------------2---2-----2---1---1---1-----1---3-------3-------|
A|-4-------4-----------------------2-------2-----------------------|
E|-----------------2-------2---------------------------------------|
   *   *   *   *   *   *   *   *   *   *   *   *   *   *   *   *  



e|---4---4-----4---------------------------------------------------|
B|---5---5-----5---3---3-----3---4---4---4-----4---2---2-----2---2-|
G|---4---4-----4---3---3-----3---3---3---3-----3---1---1-----1---4-|
D|-----------------2---2-----2---4---4---4-----4---0---0-----0---2-|
A|-4-------4-----------------------2-------2-----------------------|
E|-----------------2-------2-----------------------1-------1-------|
   *   *   *   *   *   *   *   *   *   *   *   *   *   *   *   *   

  2:31

e|-----------------------------------------------------------------|
B|---2---2-----2---4---4-----4---7---7---7-----7---5---5-----5---2-|
G|---4---4-----4---3---3-----3---6---6---6-----6---5---5-----5---4-|
D|---2---2-----2---2---2-----2---7---7---7-----7---4---4-----4---2-|
A|-4-------4-----------------------6-------6-----------------------|
E|-----------------3-------3-----------------------4-------4-------|
   *   *   *   *   *   *   *   *   *   *   *   *   *   *   *   *  



e|---------------------------------------------------------------4-|
B|---2---2-----2---4---4-----4---2---2---2-----2---2---2-----2---5-|
G|---4---4-----4---3---3-----3---3---3---3-----3---1---1-----1---4-|
D|---2---2-----2---2---2-----2---1---1---1-----1---0---0-----0-----|
A|---------------------------------2-------2-----------------------|
E|-4-------4-------3-------3-----------------------1-------1-------|
   *   *   *   *   *   *   *   *   *   *   *   *   *   *   *   *  

  2:42

e|---4---4-----4---3---3-----3-------------------------------------|
B|---5---5-----5---4---4-----4---7---7---7-----7---5---5-----5---2-|
G|---4---4-----4---3---3-----3---6---6---6-----6---5---5-----5---4-|
D|-----------------2-------2-----7---7---7-----7---4---4-----4---2-|
A|-4-------4-----------------------6-------6-----------------------|
E|-------------------------------------------------4-------4-------|
   *   *   *   *   *   *   *   *   *   *   *   *   *   *   *   * 



e|-----------------------------------------------------------------|
B|---2---2-----2---4---4-----4---2---2-----2-----2-----2-----2---4-|
G|---4---4-----4---3---3-----3---1---1-----1-----1-----1-----1---3-|
D|---2---2-----2---2---2-----2---1---1-----1-----1-----1-----1---4-|
A|---------------------------------2-------2-------2-------2-------|
E|-4-------4-------3-------3---------------------------------------|
   *   *   *   *   *   *   *   *   *   *   *   *   *   *   *   *  


Verse 4:


  2:52

e|---------------------------------------------------------------4-|
B|---4---4-----4---4---4-----4---2---2---2-----2---2---2-----2---5-|
G|---3---3-----3---3---3-----3---3---3---3-----3---1---1-----1---6-|
D|---4---4-----4---4---4-----4---1---1---1-----1---0---0-----0-----|
A|-2-------2-------2-------2-------2-------2-----------------------|
E|-------------------------------------------------1-------1-------|
   *   *   *   *   *   *   *   *   *   *   *   *   *   *   *   *   

  
 
e|---4---4-----4---4---4-----4---4---4---4-----4-------------------|
B|---5---5-----5---5---5-----5---5---5---5-----5---4---4-----4---2-|
G|---6---6-----6---5---5-----5---4---4---4-----4---4---4-----4---4-|
D|-------------------------------------------------2---2-----2---2-|
A|-4-------4-------4-------4-------4-------4-------4-------4-------|
E|-----------------------------------------------------------------|
   *   *   *   *   *   *   *   *   *   *   *   *   *   *   *   *  

   

e|-----------------------------------------------------------------|
B|---2---2-----2---2---2-----2---4---4---4-----4---4---4-----4---2-|
G|---4---4-----4---4---4-----4---3---3---3-----3---3---3-----3---3-|
D|---2---2-----2---2---2-----2---2---2---2-----2---2---2-----2---1-|
A|-----------------------------------------------------------------|
E|-4-------4-------4-------4-------3-------3-------3-------3-------|
   *   *   *   *   *   *   *   *   *   *   *   *   *   *   *   *  

  

e|-----------------------------------------------------------------|
B|---2---------2-------2-----2---7---7---7-----7---7---7-----7---5-|
G|---3---------3-------3-----3---6---6---6-----6---6---6-----6---5-|
D|---1---------1-------1-----1---7---7---7-----7---7---7-----7---4-|
A|-2-------2-------2-------2-------6-------6-------6-------6-------|
E|-----------------------------------------------------------------|
   *   *   *   *   *   *   *   *   *   *   *   *   *   *   *   *  

   

e|-----------------------------------------------------------------|
B|---5---5-----5---5---5-----5---2---2---2-----2---2---2-----2---2-|
G|---5---5-----5---5---5-----5---4---4---4-----4---4---4-----4---0-|
D|---4---4-----4---4---4-----4---2---2---2-----2---2---2-----2-----|
A|-----------------------------------------------------------------|
E|-4-------4-------4-------4-------4-------4-------4-------4-------|
   *   *   *   *   *   *   *   *   *   *   *   *   *   *   *   *   

  

e|-----------------------------------------------------------------|
B|---2---2-----2---2---2-----2---4---4---4-----4---4---4-----4---2-|
G|---0---0-----0---0---0-----0---3---3---3-----3---5---5-----5---4-|
D|-------------------------------4---4---4-----4---4---4-----4---2-|
A|---------------------------------2-------2-----------------------|
E|-0-------0-------0-------0-----------------------4-------4-------|
   *   *   *   *   *   *   *   *   *   *   *   *   *   *   *   *  

   
 
e|-----------------------------------------------2-----2-----2---4-|
B|---2---2-----2---4---4-----4---2-----2-----2---4-----4-----4---5-|
G|---4---4-----4---3---3-----3---1-----1-----1---3-----3-----3---4-|
D|---2---2-----2---2---2-----2---1-----1-----1---------------------|
A|-----------------------------------------------------------------|
E|-4-------4-------3-------3-------2-------2-------2-------2-------|
   *   *   *   *   *   *   *   *   *   *   *   *   *   *   *   *



Breakdown:


  

e|---4---4-----4-----------------2---2---2-----2---4---4-----4---4-|
B|---5---5-----5---3---3-----3---4---4---4-----4---3---3-----3---5-|
G|---4---4-----4---3---3-----3---3---3---3-----3---4---4-----4---4-|
D|-----------------2---2-----2---------------------3-------3-------|
A|-4-------4-----------------------2-------2-----------------------|
E|-----------------2-------2---------------------------------------|
   *   *   *   *   *   *   *   *   *   *   *   *   *   *   *   *  



e|---4---4-----4-------------------------------------------------4-|
B|---5---5-----5---3---3-----3---4---4---4-----4---2---2-----2---5-|
G|---4---4-----4---3---3-----3---3---3---3-----3---1---1-----1---4-|
D|-----------------2---2-----2---4---4---4-----4---0---0-----0-----|
A|-4-------4-----------------------2-------2-----------------------|
E|-----------------2-------2-----------------------1-------1-------|
   *   *   *   *   *   *   *   *   *   *   *   *   *   *   *   *   

  

e|---4---4-----4---------------------------------------------------|
B|---5---5-----5---8---8-----8---7---7---7-----7---5---5-----5---2-|
G|---4---4-----4---8---8-----8---6---6---6-----6---5---5-----5---4-|
D|-----------------8---8-----8---7---7---7-----7---4---4-----4---2-|
A|-4-------4-------7-------7-------6-------6-----------------------|
E|-------------------------------------------------4-------4-------|
   *   *   *   *   *   *   *   *   *   *   *   *   *   *   *   *  



e|---------------------------------------------------------------4-|
B|---2---2-----2---4---4-----4---2---2---2-----2---2---2-----2---5-|
G|---4---4-----4---3---3-----3---3---3---3-----3---1---1-----1---4-|
D|---2---2-----2---2---2-----2---1---1---1-----1---0---0-----0-----|
A|---------------------------------2-------2-----------------------|
E|-4-------4-------3-------3-----------------------1-------1-------|
   *   *   *   *   *   *   *   *   *   *   *   *   *   *   *   *  

  

e|---4---4-----4---------------------------------------------------|
B|---5---5-----5---8---8-----8---7---7---7-----7---5---5-----5---2-|
G|---4---4-----4---8---8-----8---6---6---6-----6---5---5-----5---4-|
D|-----------------8---8-----8---7---7---7-----7---4---4-----4---2-|
A|-4-------4-------7-------7-------6-------6-----------------------|
E|-------------------------------------------------4-------4-------|
   *   *   *   *   *   *   *   *   *   *   *   *   *   *   *   * 



e|-----------------------------------------------------------------|
B|---2---2---2-----4---4-----4-------2-----------------------------|
G|---4---4---4-----3---3-----3-------3-----------------------------|
D|---2---2---2-----2---2-----2-------1-----2-----1-----------------|
A|-----------------------------------------3-----2-----------------|
E|-4-------4-------3-------3-------------0-3-----2-----------------|
   *   *   *   *   *   *   *   *   *   *   *   *   *   *   *   *  
Добавлено: 03.06.2016
Вам также может быть интересно:
Другие материалы по этой песне:
  • Аккорды и текст

Страница создана 03.06.2016
http://primanota.ru/joao-gilberto/isto-aqui-o-que-e-chords.htm
Привет, Гость.
Предлагаем пройти революционный курс по гитаре.
Подарок от PrimaNota.Ru, забирай!