PrimaNota.ru - самый крупный в мире бесплатный архив песенных текстов, аккордов, табулатур и нот


Jimi Hendrix - Peace In Mississippi - таба, видео

Регистрация Запомнить меня
Войти через:  Facebook Google Twitter Vk Yandex Mail.ru

Jimi Hendrix - Peace In Mississippi - таба, видео

Печатать
Просмотров: 98
Уроки эстрадного вокала в Санкт-Петербурге
Авторы музыки: Jimi Hendrix

Peace In Mississippi
Jimi Hendrix
Crash Landing 1975

[INTRO] Start with muted strings and run up from 12th fret to E chord

[VERSE]

 E                     E (12 poss)                E                    E (12 poss)
e|---------------------|------------------------|---------------------|--------------------| 
B|---------------------|------------------------|---------------------|--------------------|
G|---------------------|------------------12----|---------------------|--------------------| 
D|---------------------|-----------12--------14-|---------------------|--------12------12--|
A|---------------------|--12--14------14--------|---------------------|-12--14-----14------| 
E|---------------------|------------------------|---------------------|--------------------|

e|------------------------|-----------------------| 
B|------------------------|-----------------------|
G|-2-2-2-2-0--2--0--------|-2-0----2-0-----2-0----| 
D|-----------------2-0-2--|-----2-------2------2--|
A|------------------------|-----------------------| 
E|------------------------|-----------------------|

[BRIDGE]

e|----------------------------|------------------------|--------------0-----|
B|----------------------------|------------------------|--------------0-----|
G|----------------------------|------------------------|--------------1-----|
D|-------------0--------------|--0--2--0-2-0-2---------|--6-6-6--4-4--2-----|
A|-------0-1-2---2--1-0-------|------------------------|--7-7-7--5-5--2-----|
E|-0--3-----------------3--0--|------------------------|--------------0-----|


Heres the basic structure of the song. When I say E (12 Poss) it means play a E bar chord on the 12th fret
The solos.....no sorry   
Добавлено: 19.11.2017
Другие материалы по этой песне:
  • Аккорды и текст

Страница создана 19.11.2017
http://primanota.ru/jimi-hendrix/peace-in-mississippi-chords.htm
Привет, Гость.
Предлагаем пройти революционный курс по гитаре.
Подарок от PrimaNota.Ru, забирай!