PrimaNota.ru - самый крупный в мире бесплатный архив песенных текстов, аккордов, табулатур и нот


Jim Croce - You Dont Mess Around With Jim - текст песни, таба, видео

Регистрация Запомнить меня
Войти через:  Facebook Google Twitter Vk Yandex Mail.ru

Jim Croce - You Dont Mess Around With Jim - текст песни, таба, видео

Печатать
Просмотров: 50
Авторы музыки: Jim Croce
Авторы текста: Jim Croce
YOU DON'T MESS AROUND WITH JIM 

As recorded by Jim Croce
(From the 1972 Album YOU DON'T MESS AROUND WITH JIM)

Words and Music by Jim Croce

Transcribed by Slowhand



          E7                   A7                   B7
      0 2 0 1 0 x          x 0 2 0 2 x          x 2 4 2 4 x



Gtr I (E A D G B E) - 'Jim Croce - Acoustic Guitar '
Gtr II (E A D G B E) - 'Maury Muehleisen - Acoustic Guitar '
Gtr III (E A D G B E) - 'Maury Muehleisen - Acoustic Guitar '


 Intro
  Q=164(8=s8)
     E7
 4/4
  Gtr II (Ac. Gtr.)
  Q  Q  Q   Q     Q   Q   Q   Q     Q  Q  Q  Q     Q  Q   Q   Q
     |      |         |       |        |     |        |       |
     /      /         /       /        /     /        /       /

  Gtr I (Ac. Gtr.)
  Q  Q  E E E E   E E E E E E E E   Q  Q  Q  E E   Q  E E E E E E
|---------------|-----------------|--------------|-----------------||
|---------------|-----------------|--------------|-----------------||
|---------------|-----------------|--------------|-----------------||
|---------------|-------2---------|--------------|------2----------||
|-2--2--4-x-4-x-|-5-x-5-2-4-4-4---|-2--2--4--4-x-|-5--5-2-4-x-4-0--||
|-0--0--0---0-x-|-0-x-0---0---0-x-|-0--0--0--0---|-0--0---0---0----||


 1st Verse
     E7
  Q  Q  Q  Q    Q  Q  Q   Q     Q  Q  Q   Q    Q  Q   Q   Q
     |     |       |      |        |      |       |       |
     /     /       /      /        /      /       /       /

  Q  Q  Q  Q    Q  Q  E E E E   Q  Q  E E Q    Q  E E E E E E
|-------------|---------------|--------------|-----------------|
|-------------|---------------|--------------|-----------------|
|-------------|---------------|--------------|-----------------|
|-------------|---------------|--------------|------2----------|
|-2--2--4--4--|-5--5--4-x-4-0-|-2--2--4-x-4--|-5--5-2-4-x-4-0--|
|-0--0--0--0--|-0--0--0---0---|-0--0--0---0--|-0--0---0---0----|


  Gtr I
  Q  Q   Q  Q    Q  Q  Q  Q     Q  Q  Q  Q     Q       Q       Q       Q
     |      |       |     |        |     |             |               |
     /      /       /     /        /     /             /               /

  Gtr III (Ac. Gtr.)
  W              W              W              E  Q       +E   E  Q        E
|--------------|--------------|--------------|----------------10----------10--|
|--------------|--------------|--------------|---10b12---(10)----10b12--------|
|--------------|--------------|--------------|--------------------------------|
|--------------|--------------|--------------|--------------------------------|
|--------------|--------------|--------------|--------------------------------|
|--------------|--------------|--------------|--------------------------------|
|
| Gtr II
| Q  E E Q  Q    Q  Q  Q  E E   Q  Q  Q  E E   Q       E   E   E  E    Q
|--------------|--------------|--------------|--------------------------------|
|--------------|--------------|--------------|--------------------------------|
|--------------|--------------|--------------|--------------------------------|
|------2-------|--------------|--------------|-------------2------------------|
|-2--2-2-4--4--|-5--5--4--4-0-|-2--2--4--4-2-|-5-------5---0---x--------------|
|-0--0---0--0--|-0--0--0--0---|-0--0--0--0---|-0-------0-------x--0----3/-----|


         A7
   Q      Q      Q   Q     Q   Q   Q   Q
          |          |         |       |
          /          /         /       /

   Q      Q      E E Q     Q   E E H
|-----------------------|------------------|
|-10b12--10b12--10-8----|--8--10-----------|
|--------------------9--|--------9---------|
|-----------------------|------------------|
|-----------------------|------------------|
|-----------------------|------------------|
|
|  Q      Q      E E Q     Q   Q   E E E E
|-----------------------|------------------|
|-----------------------|------------------|
|-----------------------|------------------|
|-----------------------|------------------|
|--7------7------9-9-9--|-10--10---9---9-9-|
|--5------5------5-5-5--|--5---5---5-0-5-5-|


                                B7
  Q    Q      Q   Q      Q       Q   Q   Q
       |          |              |       |
       /          /              /       /

  Q    Q      E E Q      Q       E E H
|---------------------|-----------------------|
|-----10b12--10-8-----|--8b8.5----------------|
|-----------------9---|----------9------------|
|---------------------|-----------------------|
|---------------------|-----------------------|
|---------------------|-----------------------|
|
| E E  Q      E E E E    Q       Q   E E E E
|---------------------|-----------------------|
|---------------------|-----------------------|
|---6-----------------|-----------------------|
|------5--------------|-----------------------|
|-7----7------9---9---|-10------10---9---9----|
|-5----5------5-0-5---|--5-------5---5-0-5----|


     B7                   A7
  Q  Q      Q    Q     Q  Q      Q   Q
     |           |        |          |
     /           /        /          /

  Q  Q      E E  E E   Q  Q      E E E E
|--------------------|-------------------|
|--------------------|-------------------|
|----9b11---9-7------|----9b11---9-7-----|
|----------------9---|---------------9---|
|--------------------|-------------------|
|--------------------|-------------------|
|
| Q  Q      Q    Q     Q  E    E E E E E
|--------------------|-------------------|
|--------------------|-------------------|
|--------------------|-------------------|
|--------------------|-------------------|
|-9--9-----11---11---|-7--7------9---9---|
|-7--7------7----7---|-5--5----x-5-0-5---|


     B7                     A7
  Q  Q       Q    Q     Q   Q   Q    Q
     |            |         |        |
     /            /         /        /

  Q  Q       E E  E E   E E E E E E +Q
|---------------------|------------------------|
|---------------------|------------------------|
|----9b11----9-7----7-|------------------------|
|-----------------9---|---9---7---5-(5)b5.5----|
|---------------------|------------------------|
|---------------------|------------------------|
|
| Q  E    E  Q    Q     Q   Q   E E  E      E
|---------------------|---------------------0--|
|---------------------|---------------------0--|
|---------------------|------------------------|
|---------------------|------------------------|
|-9--9------11---11---|-7---7---7--------------|
|-7--7----x--7----7---|-5---5---5-0--5---------|


        E7
   Q    Q   Q   Q     Q     Q   Q   Q
        |       |           |       |
        /       /           /       /

   E  E E E E E E E   E E a E E E E Q
|-------------------|-------------------||
|-------------------|-------------------||
|-------------------|---7---------------||
|-------------5---7s|=9---9s7-5-7-5-----||
|--7----7---7-------|---------------7---||
|-------------------|-------------------||
|
| +Q    Q   Q   Q     Q     Q   E E Q
|-(0)---------------|-------------------||
|-(0)---------------|-------------------||
|-------------------|-------------------||
|-------------------|-------------------||
|-------2---4---4---|-5-----2-----4-----||
|-------0---0---0---|-0-----0---2---4/--||


 Chorus
     A7                      E7
  Q  Q    Q    Q        Q    Q    Q    Q
     |         |             |         |
     /         /             /         /

  Q  E E  E  E E E     +Q    E E  E  E E E
|--------------------|----------------------|
|--------------------|----------------------|
|--------------------|----------------------|
|----7----7------7b8-|-(7)---7p5h=7p=5---5h=|
|--------------------|-----------------7----|
|--------------------|----------------------|
|
| Q  Q   +E  E Q        E  e E E +E  E E E
|--------------------|-------0-0-(0)-0------|
|----5---(5)---------|-----0-3-3-(3)--------|
|----6---(6)---------|--1----1-1-(1)--------|
|----7---(7)---------|--2----2-2-(2)--------|
|--------------0-----|--2--------------2----|
|-5----------0-0-----|--0--------------0----|


      A7                  E7                  A7
  Q   Q   Q   Q     Q     Q    Q    Q     Q   Q   Q  Q      Q    Q   Q   Q
      |       |           |         |         |      |           |       |
      /       /           /         /         /      /           /       /

  Q   Q   Q   E E   E E a E E  E  E E E   Q   Q   Q  E E    E E  E E E E E E
|-----------------|---------------------|----------------|-------------------|
|-----------------|---------------------|----------------|-------------------|
|-----------------|---7-----------------|----------------|-------------------|
|-7-------------7s|=9---9s7-5--7p=5---5-|-7-------7----5h|==7-5--7-5-7-5-7-5-|
|-----------------|-----------------7---|----------------|-------------------|
|-----------------|---------------------|----------------|-------------------|
|
| E E E E E E E E   E E   E E +E  E Q     E E E E Q  Q      Q    E E E E Q
|-----------------|-------0-------------|----------------|-------------------|
|-----5-----8-----|-------3-3-(3)-------|----------------|-------------------|
|-----6-----------|-------1-------------|----------------|-------------------|
|-----7-7-7-------|-------2-------------|----------------|-------------------|
|-----------------|-2-------------2-----|-----7---9--9---|-10---10-x-9-x-9---|
|-5---5-------0---|-0-----0-------0-0---|-5---5-0-5--5---|--5----5-x-5-x-5---|


        B7              A7        E7
    Q   Q   Q           Q     Q   Q   Q   Q
        |               |         |       |
        /               /         /       /

  a E E E E E     Q.          E E E E E E E E
|---------------------------|-------------------|
|---------------------------|-------------------|
|-----7-7-------------------|-------------------|
|-7s9---9-7-5b5.5-5b5.5-----|-----------5---7b8-|
|---------------------------|-7---7---7---------|
|---------------------------|-------------------|
|
|   Q   Q   E     E     E E   Q   Q   Q   E E
|---------------------------|-------------------|
|---------------------------|-------------------|
|---------------------------|-------------------|
|-----------------x-------x-|-------------------|
|---9---9-------------------|-2---2---4---4-x---|
|---7---5---3-----------2---|-0---0---0---0-----|


                           B7
   Q   Q    Q    Q     Q   Q   Q   Q
       |         |         |       |
       /         /         /       /

  +Q   Q   +E  Q   E   Q   Q   Q   E a E
|--------------------|--------------------|
|--------------------|--------------------|
|--------------------|--------------------|
|-(7)--7---(7)-------|--------------------|
|--------------7---5-|--------------------|
|--------------------|-7---7---------5s7--|
|
|  Q   E E  E  E Q     E E E E E E Q
|--------------------|--------------------|
|--------------------|-------0------------|
|--------------------|-----2-------2------|
|--------------2-----|---1-1---1---1------|
|--5---5----4--2-4---|-2-2-2---2---2------|
|--0---0-0--0--0-0---|--------------------|


                           2nd Verse
                                E7
   Q    Q       Q    Q      Q   Q  Q  Q    Q  Q   Q       Q     Q  Q  Q   Q
        |            |          |     |       |           |        |      |
        /            /          /     /       /           /        /      /

  +E  E E E    +Q    E E    E E Q  H       Q  E E E Q.          Q  H      E E
|------------------------||--------------|--------------------|----------------|
|------------------------||--------------|--------------------|----------------|
|------------------------||--------------|--------------------|----------------|
|------------------------||--------------|----------5b5.5-----|-----------5----|
|-----5---7b9==(7)r----5-||--------------|------5h7-----------|-7--7-----------|
|-(7)---7------------7---||-0------------|--------------------|----------------|
|
|  Q    Q       Q    Q      Q   Q  Q  Q    Q  Q   E E     E E   Q  Q  E E Q
|------------------------||--------------|--------------------|----------------|
|------------------------||--------------|--------------------|----------------|
|--3----2----------------||--------------|--------------------|----------------|
|--2----1-------x----1---||--------------|--------------------|----------------|
|--3----2-------x----2---||-2---2--4--4--|-5--5---4-x-----4-0-|-2--2--4-x-4----|
|------------------------||-0---0--0--0--|-0--0---0-------0---|-0--0--0---0----|


  Q  Q   Q      Q      Q  Q   Q  Q    Q  Q   Q   Q      Q   Q   Q  Q
     |          |         |      |       |       |          |      |
     /          /         /      /       /       /          /      /

  Q  E E E E   +E  E   W              Q  E E E E E E   +Q   E E H
|--------------------|--------------|----------------|------------------|
|--------------------|--------------|----------------|------------------|
|--------------------|--------------|----------------|------------------|
|------5---7b9r(7)p5-|--------------|----------5---5-|-(5)--------------|
|----7---------------|-7------------|------5h7---7---|------7-----------|
|--------------------|--------------|----------------|------------------|
|
| Q  E E E E    E  E   Q  E E Q  Q    Q  Q   Q   E E    Q   Q   Q  E E
|--------------------|--------------|----------------|------------------|
|--------------------|--------------|----------------|------------------|
|--------------------|--------------|----------------|------------------|
|------2-------------|------2-------|----------------|------------------|
|-5--5-2-4-x----4--0-|-2--2-2-4--4--|-5--5---4---4-0-|--2---2---4--4-2--|
|-0--0---0------0----|-0--0---0--0--|-0--0---0---0---|--0---0---0--0----|


                            A7
  Q   Q      Q    Q      Q  Q  Q   Q
      |           |         |      |
      /           /         /      /

                         ~
  E E E a E +E  Q    E   W
|----------------------|--------------|
|----------------------|--------------|
|---------------7----7h|=9------------|
|---5---7s9-(9)--------|--------------|
|-7--------------------|--------------|
|----------------------|--------------|
|
| Q   E   E  E  E Q      Q  Q  E E Q
|----------------------|--------------|
|----------------------|--------------|
|----------------------|--------------|
|---------2------------|--------------|
|-5---5---0--x---------|-7--7--9-9-9--|
|-0---0------x--0-3/---|-5--5--5-5-5--|


   Q   Q      Q       Q          Q   Q   Q   Q
       |              |              |       |
       /              /              /       /

   Q   S E S +E   E  +Q          E E E E Q   E E
|-----------------------------|-------------------|
|----------8-(8)-10-(10)b12---|-10-8--------------|
|--------9--------------------|------9---------9--|
|-----------------------------|-------------------|
|-----------------------------|-------------------|
|-----------------------------|-------------------|
|
|  Q   Q      E   E   E     E    E E Q   E E E E
|-----------------------------|-------------------|
|-----------------------------|-------------------|
|-----------------------------|----6--------------|
|-----------------------------|------5------------|
|-10--10------9-------9-----9-|--7---7---9---9----|
|--5---5------5---0---5-----5-|--5---5---5-0-5----|


                                B7
   Q        Q    Q   Q      Q   Q   Q   Q
            |        |          |       |
            /        /          /       /

   E  Q        E E E E E   +Q   Q   Q   Q
|------------------------|-----------------|
|--8-10b12----10-8-------|-----------------|
|------------------9-7---|-----------------|
|----------------------9-|-(9)------9------|
|------------------------|-----------------|
|------------------------|-----------------|
|
|  Q        Q    E E E E    Q   Q   Q   Q
|------------------------|-----------------|
|------------------------|-----------------|
|------------------------|-----------------|
|------------------------|-----------------|
|-10-------10----9---9---|--9---9--11--11--|
|--5--------5----5-0-5---|--7---7---7---7--|


      A7               B7
  Q   Q   Q   Q     Q  Q    Q    Q
      |       |        |         |
      /       /        /         /

  E E E E E E Q     Q  Q    Q.     E
|-----------------|-------------------|
|-----------------|-------------------|
|---9---9---9-----|----------------9--|
|-----------------|----9----9---------|
|-----------------|-------------------|
|-----------------|-------------------|
|
| Q   E E E E E E   Q  E E  Q    Q
|-----------------|-------------------|
|-----------------|-------------------|
|-----------------|-------------------|
|-----------------|-------------------|
|-7---7---9---9---|-9--9---11---11----|
|-5---5-x-5-0-5---|-7--7-x--7----7----|


      A7                                E7
  Q   Q          Q          Q      Q    Q   Q         Q
      |                     |           |             |
      /                     /           /             /

  E Q    E      +E   +S  S  E E   +E  E Q   E     +Q     E
|-------------------------------|--------------------------|
|-------------------------------|----------12----(12)---12-|
|-9-9---11b13==(11)r(11)p9----9-|-(9)-9----11b13-(11)------|
|--------------------------11---|--------------------------|
|-------------------------------|--------------------------|
|-------------------------------|--------------------------|
|
| Q   Q          E    E     E E   +Q    Q   Q         Q
|-----------------------------0-|-(0)----------------------|
|-----------------------------0-|-(0)----------------------|
|-------------------------------|--------------------------|
|-------------------------------|--------------------------|
|-7---7----------7--------------|-------2---4---------4----|
|-5---5----------5----0-----5---|-------0---0---------0----|


                             Chorus
                                     A7
   Q       Q   Q      Q          Q   Q   Q    Q
           |          |              |        |
           /          /              /        /

   Q       Q   E  +E  E  E    a  E E Q   H
|--------------------------||---------------------|
|---------12---------------||---------------------|
|-11b13=======11r(11)-x--x-||------9--------------|
|--------------------------||-9h11----------------|
|--------------------------||---------------------|
|--------------------------||---------------------|
|
|  Q       Q   E   E  Q          Q   Q  +E  E Q
|--------------------------||---------------------|
|--------------------------||--------5--(5)-------|
|--------------------------||--------6--(6)-------|
|--------------------------||--------7--(7)-------|
|--5-------2-------4-------||-----------------0---|
|--0-------0---2------4/---||----5----------0-0---|


          E7                    A7
  Q       Q     Q     Q     Q   Q   Q   Q
          |           |         |       |
          /           /         /       /

  E  Q       E  E   E E E   E E Q   Q   E E
|-------------------------|-----------------|
|-------------------------|-----------------|
|---11b12---11--9-----9---|-9-------------9-|
|------------------11-----|-----------------|
|-------------------------|-----------------|
|-------------------------|-----------------|
|
| E  e    E  E +E   E E E   E E E E E E E E
|---------0--0-(0)--0-----|-----------------|
|----0----3--3-(3)--------|-----5-----8-----|
|-1-------1--1-(1)--------|-----6-----------|
|-2-------2--2-(2)--------|-----7-7-7-------|
|-2-------------------2---|-----------------|
|-0-------------------0---|-5---5-------0---|


       E7                              A7
  Q    Q          Q      Q        Q    Q   Q  Q
       |                 |             |      |
       /                 /             /      /

  E  E E  E      +E    E E  E    +Q    Q   Q  E E
|-----------------------------|--------------------|
|-8-10---10b12==(10)r-10-8-10-|-(10)---8-----------|
|-----------------------------|------------9----7--|
|-----------------------------|--------------------|
|-----------------------------|--------------------|
|-----------------------------|--------------------|
|
| E  E E  E      +E    E Q        E  E E E Q  Q
|------0----------------------|--------------------|
|------3--3------(3)----------|--------------------|
|------1----------------------|--------------------|
|------2----------------------|--------------------|
|-2--------------------2------|--------7---9--9----|
|-0----0---------------0-0----|---5----5-0-5--5----|


                                      B7
   Q    Q   Q   Q            Q          Q     Q       Q
        |       |                       |             |
        /       /                       /             /

   E E  E E E E E  E        +E   E  a  +E  E  E Q       E
|------------------------|------10------------------------|
|---------8-------10b12==|=(10)----10r(10)-8-10-8b8.5-----|
|--9-7--9-----9----------|------------------------------9-|
|------------------------|--------------------------------|
|------------------------|--------------------------------|
|------------------------|--------------------------------|
|
|  Q    E E E E Q            Q          Q     E E     E E
|------------------------|--------------------------------|
|------------------------|--------------------------------|
|------------------------|--------------------------------|
|------------------------|----------------------x-------x-|
|-10---10-x-9-x-9--------|---9----------9-----------------|
|--5----5-x-5-x-5--------|---7----------5-----3-------2---|


        E7
   Q    Q   Q   Q           Q    Q    Q   Q
        |       |                |        |
        /       /                /        /

  +E  Q   E E E E  E       +Q    E E  E Q   E
|-----------------------|---------------------|
|-------------8---10b12-|-(10)--10-8-10-8-----|
|-(9)-9---7-9-----------|-------------------9-|
|-----------------------|---------------------|
|-----------------------|---------------------|
|-----------------------|---------------------|
|
|  Q    Q   Q   E  E        Q    E E  E E Q
|-----------------------|---------------------|
|-----------------------|---------------------|
|-----------------------|---------------------|
|-----------------------|---------------2-----|
|--2----2---4---4--x----|---5----5----4-2-4---|
|--0----0---0---0-------|---0----0-0--0-0-0---|


        B7
   Q    Q    Q     Q    Q     Q   Q   Q
        |          |          |       |
        /          /          /       /

  +Q    Q   +E  Q.      E +E  E E E Q   E
|---------------------|-------------------||
|---------------------|-------------------||
|-(9)---7---(7)-7-----|-7-(7)-------7---9-||
|---------------------|-------9-7-9-------||
|---------------------|-------------------||
|---------------------|-------------------||
|
|  E  E E E  E  E  Q    Q     Q   Q   Q
|---------------------|-------------------||
|---------0-----------|-------------------||
|-------2----------2--|-3-----2-----------||
|-----1-1----1-----1--|-2-----1---x---1---||
|--2--2-2----2-----2--|-3-----2---x---2---||
|---------------------|-------------------||


 3rd Verse
       E7
   Q   Q  Q   Q      Q    Q  Q   Q
       |      |           |      |
       /      /           /      /

  +W                +W
|-----------------|------------------|
|-----------------|------------------|
|-(9)-------------|-(9)--------------|
|-----------------|------------------|
|-----------------|------------------|
|-----------------|------------------|
|
|  Q   Q  E E E E    E  E Q  E E Q
|-----------------|------------------|
|-----------------|------------------|
|-----------------|------------------|
|-----------------|------------------|
|-----------------|------------------|
|--x---x--x-x-x-x-|--x--x-x--x-x-x---|


  Q   Q   Q   Q     Q  Q   Q    Q     Q   Q    Q    Q     Q   Q    Q    Q
      |       |        |        |         |         |         |         |
      /       /        /        /         /         /         /         /

  W                 H      E Q.       Q.    E +H          E Q   E +E  Q   E
|-----------------|-----------------|-------------------|--------------------|
|-----------------|-----------------|-------------------|--------------------|
|-----------------|----------7------|-9-----7-(7)-------|-----------------7--|
|-----------------|-----------------|-------------------|-------5-(5)-7------|
|-----------------|-----------------|-------------------|---7----------------|
|-----------------|-----------------|-------------------|--------------------|
|
| E E E E E E E E   Q  E E E E  E E   Q   E E  E  E E E   E E E E  E  E Q
|-----------------|-----------------|-------------------|--------------------|
|-----------------|-----------------|-------------------|--------------------|
|-----------------|-----------------|-------------------|--------------------|
|-----------------|-----------------|-------------------|--------------------|
|-----------------|-----------------|-------------------|--------------------|
|-x-x-x-x-x-x-x-x-|-x--x-x-x-x--x-x-|-x---x-x--x--x-x-x-|-x-x-x-x--x--x-x----|


  Q   Q  Q   Q    Q   Q    Q       Q
      |      |        |            |
      /      /        /            /

  W               E E E  E E  Q       E
|---------------|---------------------0-----|
|---------------|---8---10---10b12---10b12==|
|-9-------------|-9-------------------------|
|---------------|---------------------------|
|---------------|---------------------------|
|---------------|---------------------------|
|
| E E Q  E E Q    Q   Q    Q       Q
|---------------|---------------------------|
|---------------|---------------------------|
|---------------|---------------------------|
|---------------|---------------------------|
|---------------|---------------------------|
|-x-x-x--x-x-x--|-x---0----2-------4--------|


          A7
    Q     Q    Q     Q      Q   Q      Q    Q
          |          |          |           |
          /          /          /           /

   +E   E E E +Q     E E    H       a  Q    E  E
|--(0)-------------------|-----------------10----|
|-(10)r-8---8-(8)---10---|---------10s12------12-|
|---------9--------------|-----------------------|
|------------------------|-----------------------|
|------------------------|-----------------------|
|------------------------|-----------------------|
|
|   Q     Q    E  E  Q      Q   Q      E E  E  E
|------------------------|-----------------------|
|------------------------|-----------------------|
|------------------------|-----------------------|
|------------------------|-----------------------|
|---7-----7----9--9--9---|-10--10------9----9--9-|
|---5-----5----5--5--5---|--5---5------5-0--5--5-|


    Q    Q   Q   Q      Q   Q   Q       Q
         |       |          |           |
         /       /          /           /

   +Q    H.             H       Q       Q
|--------------------|---------10------10---|
|-(12)---8-----------|---------10b12---10---|
|--------------------|----------------------|
|--------------------|----------------------|
|--------------------|----------------------|
|--------------------|----------------------|
|
|   E  E Q   E E E E    Q   Q   E    E  E E
|--------------------|----------------------|
|--------------------|----------------------|
|------6-------------|----------------------|
|--------5-----------|----------------------|
|---7----7---9---9---|-10--10---9-------9---|
|---5----5---5-0-5---|--5---5---5----0--5---|


          B7                        A7
   Q        Q     Q    Q        Q   Q     Q    Q
            |          |            |          |
            /          /            /          /

   Q       +Q    +Q.      E    +H        +Q.      E
|---------------------------|----------------------------|
|-10b12===(10)--(10)-----10r|=(10)------(10)-----10b12===|
|---------------------------|----------------------------|
|---------------------------|----------------------------|
|---------------------------|----------------------------|
|---------------------------|----------------------------|
|
|  Q        Q     Q    Q        Q   E E   E  E E  E
|---------------------------|----------------------------|
|---------------------------|----------------------------|
|---------------------------|----------------------------|
|---------------------------|----------------------------|
|--9--------9----11---11----|---7---7-----9----9---------|
|--7--------7-----7----7----|---5---5-x---5--0-5---------|


        B7                       A7
    Q   Q     Q    Q        Q    Q   Q    Q
        |          |             |        |
        /          /             /        /

   +H        +Q.      E    +E  E E E E  E E E
|-----------------------|---------------------|
|-(10)------(10)-----10r|=(10)-8---8---10---8-|
|-----------------------|--------9------------|
|-----------------------|---------------------|
|-----------------------|---------------------|
|-----------------------|---------------------|
|
|   Q   E E   Q    Q        Q    Q   E  E E E
|-----------------------|-------------------0-|
|-----------------------|-------------------0-|
|-----------------------|---------------------|
|-----------------------|---------------------|
|---9---9----11---11----|---7----7---7--------|
|---7---7-x---7----7----|---5----5---5--0-5---|


           E7
   Q       Q   Q   Q     Q       Q     Q    Q
           |       |             |          |
           /       /             /          /

  +Q       E E E E E E   E E    +E  E +E  E E  E
|----------------------|--------------------------||
|-(8)b8.5--------------|--------------------------||
|----------9-7-9-7---7-|---9b11-(9)-9-(9)-7-------||
|------------------9---|--------------------9--7--||
|----------------------|--------------------------||
|----------------------|--------------------------||
|
| +Q       Q   Q   Q     Q       Q     E  E Q
|-(0)------------------|--------------------------||
|-(0)------------------|--------------------------||
|----------------------|--------------------------||
|----------------------|--------------------------||
|----------2---4---4---|-5-------2--------4-------||
|----------0---0---0---|-0-------0-----2----4/----||


 Chorus
       A7                 E7
   Q   Q   Q    Q     Q   Q    Q        Q
       |        |         |             |
       /        /         /             /

  +H.           E E   E E E E  E    +E  E E
|-------------------|-----------------------|
|-------------------|-----------------------|
|-------------------|---7-9----9b11r(9)-7-9-|
|-(7)-------------7s|=9---------------------|
|-------------------|-----------------------|
|-------------------|-----------------------|
|
|  Q   Q  +E  E Q     E e E E +E     E  E E
|-------------------|-----0-0-(0)----0------|
|------5--(5)-------|---0-3-3-(3)-----------|
|------6--(6)-------|-1---1-1-(1)-----------|
|------7--(7)-------|-2---2-2-(2)-----------|
|---------------0---|-2-----------------2---|
|--5----------0-0---|-0-----------------0---|


        A7                E7
   Q    Q   Q   Q     Q   Q      Q      Q
        |       |         |             |
        /       /         /             /

                                 |---3----|
  +W                  Q   E E a  Q    Q   Q
|-------------------|------------------------|
|-------------------|------------------------|
|-(9)---------------|---------7h=9----9---9--|
|-------------------|-----7-9----------------|
|-------------------|------------------------|
|-------------------|------------------------|
|
|  E  E E E E E E E   E E E E   +E  E   Q
|-------------------|-----0------------------|
|-------5-----8-----|-----3-3---(3)----------|
|-------6-----------|-----1------------------|
|-------7-7-7-------|-----2------------------|
|-------------------|-2-------------2--------|
|--5----5-------0---|-0---0---------0---0----|


        A7
   Q    Q   Q  Q     Q    Q         Q    Q
        |      |          |              |
        /      /          /              /

  +H.          Q     E Q     E     +E  E E E
|-----------------|--------------------------|
|-----------------|----8----10b12r(10)-8---8-|
|-(9)----------9--|--9-------------------9---|
|-----------------|--------------------------|
|-----------------|--------------------------|
|-----------------|--------------------------|
|
|  E  E E E Q  Q     Q    E  E      E  E Q
|-----------------|--------------------------|
|-----------------|--------------------------|
|-----------------|--------------------------|
|-----------------|--------------------------|
|-------7---9--9--|-10---10--x------9--x-9---|
|--5----5-0-5--5--|--5----5--x------5--x-5---|


                              Interlude
         B7                          E7
   Q     Q         Q    Q       Q    Q   Q   Q
         |              |            |       |
         /              /            /       /

   Q     E  E     +E  E E E    +E  E E E E E E  E
|---------------------------||-------------------------|
|-10b12----10b12r(10)-8---8-||-(8)---------8---10b12===|
|-----------------------9---||-----7-9-7-9-------------|
|---------------------------||-------------------------|
|---------------------------||-------------------------|
|---------------------------||-------------------------|
|
|  Q     Q         E  E E E     Q    Q   E E E  E
|---------------------------||-------------------------|
|---------------------------||-------------------------|
|---------------------------||-------------------------|
|---------------------x---x-||-------------------------|
|--9-----9------------------||--2----2---4-x-4--x------|
|--7-----5---------3----2---||--0----0---0---0--x------|


    Q      Q   Q    Q     Q       Q   Q   Q
           |        |             |       |
           /        /             /       /

   +Q      E E E  E Q     E  Q.       E E Q
|-----------------------|---10-------10-------|
|-(10)r---10---8-10-8---|---10b12-------------|
|-----------------------|---------------------|
|-----------------------|---------------------|
|-----------------------|---------------------|
|-----------------------|---------------------|
|
|   E   E  E E E  E E E   Q       Q   Q   E E
|-----------------------|---------------------|
|-----------------------|---------------------|
|-----------------------|---------------------|
|------------2----------|---------------------|
|---5---x--5-2-4--4-4---|-2-------2---4---4-x-|
|---0---x--0---0----0-x-|-0-------0---0---0---|


  Q  Q   Q         Q          Q   Q  Q   Q
     |             |              |      |
     /             /              /      /

         |------3------|
  H      Q    Q       +Q      E E Q  H
|---------------------------|-----------------|
|------------10b12r==(10)---|-8---------------|
|---------------------------|---9-------------|
|---------------------------|-----------------|
|---------------------------|-----------------|
|---------------------------|-----------------|
|
| Q  E E E E       E      E   Q   Q  E E E E
|---------------------------|-----------------|
|---------------------------|-----------------|
|---------------------------|-----------------|
|------2--------------------|-----------------|
|-5--5-2-4-x-------4------0-|-2---2--4-x-4-x--|
|-0--0---0---------0--------|-0---0--0---0-x--|


  Q   Q   Q   Q          Q    Q   Q  Q
      |       |               |      |
      /       /               /      /

  H       E E E E       +Q    H.
|---------------------|------------------|
|---------------------|------------------|
|-----------7---9b11==|=(9)r--9----------|
|---------------------|------------------|
|---------------------|------------------|
|---------------------|------------------|
|
| E E E E E E E E        Q    Q   Q  E E
|---------------------|------------------|
|---------------------|------------------|
|---------------------|------------------|
|-------2-------------|------------------|
|-5-x-5-2-4-4-4-------|--2----2---4--4-x-|
|-0-x-0---0---0-x-----|--0----0---0--0---|


  Q  Q   Q   Q         Q   Q     Q   Q
     |       |             |         |
     /       /             /         /

  Q  E E E E E E      +Q   E +E  E E E E
|-------------------|---------------------|
|-------------------|---------------------|
|----------7---7b9==|=(7)--7r(7)-------7--|
|------7h9----------|------------9-7------|
|-------------------|---------------------|
|-------------------|---------------------|
|
| Q  E E E E E E       Q   Q     E E E E
|-------------------|---------------------|
|-------------------|---------------------|
|-------------------|---------------------|
|------2------------|---------------------|
|-5--5-2-4-x-4-0----|--2---2-----4-x-4-x--|
|-0--0---0---0------|--0---0-----0---0-x--|


                   Chorus
                            A7
  Q   Q   Q   Q     Q       Q   Q     Q
      |       |             |         |
      /       /             /         /

  Q   E E H         E  Q.       E  E  E E
|----------------||-----------------------|
|----------------||-----------------------|
|-------9--------||---11b13----11--9----9-|
|----------------||------------------11---|
|----------------||-----------------------|
|----------------||-----------------------|
|
| E E E E E E Q     Q       Q  +E  E  Q
|----------------||-----------------------|
|----------------||---------5--(5)--------|
|----------------||---------6--(6)--------|
|----------------||---------7--(7)--------|
|-5-5-5-5-5------||-------------------0---|
|-0-0-0-0-0-0-4--||-5--------------0--0---|


        E7                    A7
   Q    Q    Q      Q     Q    Q       Q         Q
        |           |          |                 |
        /           /          /                 /

  +H         E   Q.       Q    Q       E  E     +E   E
|-----------------------|-------------------------------|
|---------------10\-----|-----12------12------------12--|
|-(9)--------9---9\-----|-----11b13------11b13-(11)-----|
|-----------------------|-------------------------------|
|-----------------------|-------------------------------|
|-----------------------|-------------------------------|
|
|  E  e E E +E   E  E E   E E  E    E  E  E      E   E
|-------0-0-(0)--0------|-------------------------------|
|-----0-3-3-(3)---------|------5----------8-------------|
|--1----1-1-(1)---------|------6------------------------|
|--2----2-2-(2)---------|------7----7--7----------------|
|--2----------------2---|-------------------------------|
|--0----------------0---|-5----5-----------------0------|


       E7                            A7
   Q    Q          Q     Q      Q     Q   Q  Q
        |                |            |      |
        /                /            /      /

   E E  E  E      +E  E  E E   +Q     E E Q  E E
|----------------------------|-------------------|
|----------------------------|-------10----------|
|-11-9-11-11pb13r(11)-9----9-|-(9)----9--------9-|
|-----------------------11---|-------------------|
|----------------------------|-------------------|
|----------------------------|-------------------|
|
|  E E  E  E      +E  E  Q      E  E  E E Q  Q
|-------0--------------------|-------------------|
|-------3--3------(3)--------|-------------------|
|-------1--------------------|-------------------|
|-------2--------------------|-------------------|
|--2------------------2------|--------7---9--9---|
|--0----0-------------0--0---|--5-----5-0-5--5---|


                                   B7
   Q     Q         Q    Q      Q    Q    Q   Q
         |              |           |        |
         /              /           /        /

  +E  E  E  E     +E  E E E    E E  E E  E E Q
|---------------------------|---------------------||
|-----8----10b12r(10)-8---8-|-10-8-10-8-10-8------||
|-(9)-------------------9---|---------------------||
|---------------------------|---------------------||
|---------------------------|---------------------||
|---------------------------|---------------------||
|
|  Q     E  E      E  E Q      Q    Q    E E E E
|---------------------------|---------------------||
|---------------------------|---------------------||
|---------------------------|---------------------||
|---------------------------|--------------x---x--||
|-10----10--x------9--x-9---|--9----9-------------||
|--5-----5--x------5--x-5---|--7----5----3---2----||


 Outro
     E7
  Q  Q   Q   Q           Q     Q   Q   Q
     |       |                 |       |
     /       /                 /       /

  Q  E E E Q    E       +Q     E E E E Q
|--------------------|---------------------|
|----------8---10b12-|-(10)---10-8---8-----|
|----9-7-9-----------|-------------9-------|
|--------------------|---------------------|
|--------------------|---------------------|
|--------------------|---------------------|
|
| Q  Q   E E E  E        E  E  E E E E E E
|--------------------|---------------------|
|--------------------|---------------------|
|--------------------|---------------------|
|--------------------|-----------2---------|
|-2--2---4-x-4--x----|---5--x--5-2-4-4-4---|
|-0--0---0---0--x----|---0--x--0---0---0-x-|


  Q  Q   Q   Q            Q          Q     Q   Q
     |       |                       |         |
     /       /                       /         /

  Q  E E E E E  E        +E   E  a  +E  E  E E E E
|---------------------|------10--------------------|
|----------8---10b12==|=(10)----10r(10)-8-10-8-----|
|----9-7-9---9--------|------------------------9---|
|---------------------|----------------------------|
|---------------------|----------------------------|
|---------------------|----------------------------|
|
| Q  Q   Q   E  E         Q          E  E  E E E E
|---------------------|----------------------------|
|---------------------|----------------------------|
|---------------------|----------------------------|
|---------------------|-----------------2----------|
|-2--2---4---4--x-----|---5----------5--2--4-x-4-0-|
|-0--0---0---0--------|---0----------0-----0---0---|


  Q   Q        Q      Q      Q    Q      Q      Q
      |               |           |             |
      /               /           /             /

  Q   Q       +E    E E  E   E  E E  E  +E   E  E  E
|------------------10---12-|---10-----------------10-|
|----10b12===(10)r---------|--------12-(12)-10-12----|
|--------------------------|-------------------------|
|--------------------------|-------------------------|
|--------------------------|-------------------------|
|--------------------------|-------------------------|
|
| Q   Q        E    E E  E   E  E E  E   E   E  E  E
|--------------------------|-------------------------|
|--------------------------|-------------------------|
|--------------------------|-------------------------|
|--------------------------|---------2---------------|
|-2---2--------4----x-4--x-|-5--x-5--2---4---4--4----|
|-0---0--------0------0--x-|-0--x-0------0------0--x-|


  Q    Q          Q       Q      Q    Q      Q      Q
       |                  |           |             |
       /                  /           /             /

  E  E E  E      +E    E  E  E   E  E E  E  +E   E  E E
|---12---12b14==(12)r-12-10-12-|---------0--(0)----------|
|------------------------------|---12---12-(12)-10-12----|
|------------------------------|-------------------------|
|------------------------------|-------------------------|
|------------------------------|-------------------------|
|------------------------------|-------------------------|
|
| Q    Q          Q       E  E   Q    E  E   E   E  E E
|------------------------------|-------------------------|
|------------------------------|-------------------------|
|------------------------------|-------------------------|
|------------------------------|---------2---------------|
|-2----2----------4-------4--x-|-5----5--2---4---x--4-0--|
|-0----0----------0-------0----|-0----0------0------0----|


  Q   Q     Q    Q            Q      Q    Q    Q
      |          |                   |         |
      /          /                   /         /

  Q   E  E  E  E E  E        +Q      E E  Q.      E
|-------10-12-10---14b16==|=(14)r---14---12------14-|
|----12-------------------|-------------------------|
|-------------------------|-------------------------|
|-------------------------|-------------------------|
|-------------------------|-------------------------|
|-------------------------|-------------------------|
|
| Q   Q     E  E E  E         E   E  E E  E  E E  E
|-------------------------|-------------------------|
|-------------------------|-------------------------|
|-------------------------|-------------------------|
|-------------------------|------------2------------|
|-2---2-----4--x-4--x-----|---5---x--5-2--4--4-4----|
|-0---0-----0----0--x-----|---0---x--0----0----0--x-|


    Q      Q         Q      Q      Q          Q         Q        Q
           |                |                 |                  |
           /                /                 /                  /

   +E   E  E  E     +E   E  E E    E     +E   E  E     +E   Q       E
|-(14)-14-12--------------------|------------------------------------------|
|------------14b15-(14)-14-12---|------------12------------12--------------|
|-------------------------------|-11b13-(11)----11b13-(11)-11b13---11b13===|
|-------------------------------|------------------------------------------|
|-------------------------------|------------------------------------------|
|-------------------------------|------------------------------------------|
|
|   Q      Q         Q      E E    Q          E  E      E   E    E  E
|-------------------------------|------------------------------------------|
|-------------------------------|------------------------------------------|
|-------------------------------|------------------------------------------|
|-------------------------------|----------------2-------------------------|
|---2------2---------4------4-x-|--5----------5--2------4---x----4--0------|
|---0------0---------0------0---|--0----------0---------0--------0---------|


    Q      Q   Q    Q            Q         Q          Q      Q
           |        |                      |                 |
           /        /                      /                 /

   +E   E  E E E  E E  E        +E    Q       E      +Q      E E
|----------------------------|-----------------------------------|
|----------------------------|-----------------------------------|
|-(11)r-9----9---11---11b13==|=(11)r-11b13---11b13==(11)r---11-9-|
|---------11-----------------|-----------------------------------|
|----------------------------|-----------------------------------|
|----------------------------|-----------------------------------|
|
|   Q      Q   E  E E  E         E    E    E  E       E   E  E E
|----------------------------|-----------------------------------|
|----------------------------|-----------------------------------|
|----------------------------|-----------------------------------|
|----------------------------|----------------2------------------|
|---2------2---4--x-4--x-----|---5----x----5--2-------4---4--4---|
|---0------0---0----0--x-----|---0----x----0----------0------0-x-|


  Q   Q   Q   Q     Q   Q   Q   Q
      |       |         |       |
      /       /         /       /

  E E E E E E E E   E E E E E E E E
|-----------------|------------------|
|-----------------|------------------|
|---9---9---7---6-|---7---6-9---6-7--|
|-----------------|------------------|
|-----------------|------------------|
|-----------------|------------------|
|
| Q   Q   Q   E E   Q   E E E E E E
|-----------------|------------------|
|-----------------|------------------|
|-----------------|------------------|
|-----------------|-------2----------|
|-2---2---4---4-x-|-5---5-2-4-x-4-0--|
|-0---0---0---0---|-0---0---0---0----|


  Q   Q   Q   Q     Q   Q         Q    Q
      |       |         |              |
      /       /         /              /

  E E E E E E E E   E E E  E     +E  E E  E
|-----------------|-------------------------|
|-----------------|---8---10b12r(10)---8-10-|
|-----------7---9-|------------------9------|
|---7---7---------|-------------------------|
|-----------------|-------------------------|
|-----------------|-------------------------|
|
| Q   Q   E E E E   E E E  E      E  E E  E
|-----------------|-------------------------|
|-----------------|-------------------------|
|-----------------|-------------------------|
|-----------------|--------2----------------|
|-2---2---4-x-4-x-|-5-x-5--2------4--4-4----|
|-0---0---0---0-x-|-0-x-0---------0----0--x-|


  Q    Q   Q  Q           Q   Q   Q   Q
       |      |               |       |
       /      /               /       /

  E E  E E Q  E  E       +Q   Q   H
|---------------10----|-(10)---------------*|
|---8-10--------10b12-|-(10)---------------*|
|---------------------|--------------------*|
|---------------------|--------------------*|
|---------------------|--------------------*|
|---------------------|--------------------*|
|
| Q    Q   Q  E  E        Q   E E E E E E
|---------------------|--------------------*|
|---------------------|--------------------*|
|---------------------|--------------------*|
|---------------------|---------2----------*|
|-2----2---4--4--x----|---5---5-2-4-x-4-0--*|
|-0----0---0--0-------|---0---0---0---0----*|


Duration Legend
---------------
W - whole; H - half; Q - quarter; E - 8th; S - 16th; T - 32nd; X - 64th; a - acciaccatura
+ - note tied to previous; . - note dotted; .. - note double dotted
Uncapitalized letters represent notes that are staccato (1/2 duration)
Irregular groupings are notated above the duration line
Duration letters will always appear directly above the note/fret number it represents the
duration for.  Duration letters with no fret number below them represent rests.  Multi-
bar rests are notated in the form Wxn, where n is the number of bars to rest for.  Low
melody durations appear below the staff

Tablature Legend
----------------
 h   - hammer-on
 p   - pull-off
 b   - bend
 pb  - pre-bend
 r   - bend release (if no number after the r, then release immediately)
 /\  - slide into or out of (from/to "nowhere")
 s   - legato slide
 S   - shift slide
  - natural harmonic
[n]  - artificial harmonic
n(n) - tapped harmonic
 ~   - vibrato
 tr  - trill
 T   - tap
 TP  - trem. picking
 PM  - palm muting
\n/  - tremolo bar dip; n = amount to dip
 \n  - tremolo bar down
 n/  - tremolo bar up
/n\  - tremolo bar inverted dip
 =   - hold bend; also acts as connecting device for hammers/pulls
 <>  - volume swell (louder/softer)
 x   - on rhythm slash represents muted slash
 o   - on rhythm slash represents single note slash

Misc Legend
-----------
 |  - bar
||  - double bar
||o - repeat start
o|| - repeat end
*|  - double bar (ending)
 :  - bar (freetime)
 $  - Segno
 &  - Coda
Tempo markers -  = BPM(8/16=s8/s16), where s8 = swing 8ths, s16 = swing 16ths
Добавлено: 01.12.2015
Другие материалы по этой песне:

Страница создана 03.03.2012
http://primanota.ru/jim-croce/you-dont-mess-around-with-jim-chords.htm
Привет, Гость.
Предлагаем пройти революционный курс по гитаре.
Подарок от PrimaNota.Ru, забирай!