PrimaNota.ru - самый крупный в мире бесплатный архив песенных текстов, аккордов, табулатур и нот


Jewel - Here When Gone - текст песни, таба, видео

Регистрация Запомнить меня
Войти через:  Facebook Google Twitter Vk Yandex Mail.ru

Jewel - Here When Gone - текст песни, таба, видео

Печатать
Просмотров: 104
Jewel
"Here When Gone"
Tabbed by Brian McElwain

The figure for the intro & verses is:

e|----0-------0-------0-------0-------0-------0-------0-------0--
B|--1---1---1---1---1---1---1---1---1---1---1---1---1---1---1---1
G|2-------2-------0-------0--------------------------------------
D|--------------------------------3-------3-------2-------2------
A|---------------------------------------------------------------
E|---------------------------------------------------------------

e|----0-------0-------0-------0-------0-------0-------0----------
B|--1---1---1---1---1---1---1---1---1---1---1---1---1---1---1---1
G|2-------2-------0-------0--------------------------------------
D|--------------------------------3-------3-------3-------2---0--
A|---------------------------------------------------------------
E|---------------------------------------------------------------
and the chorus is:

       (x3)    (x3)    (x3)
e|------0-------0-------0----------------------------------------
B|------1-------1-------1----------------------------------------
G|------0-------0-------2----------------------------------------
D|------2-------0-------2----------------------------------------
A|--3---3---2---2---0---0----------------------------------------
E|---------------------------------------------------------------

Repeat those chords a few times.  That's it.  Really simple, but a great
song.  Enjoy.

     
Добавлено: 21.10.2013
Другие материалы по этой песне:
  • Аккорды и текст

Страница создана 10.03.2012
http://primanota.ru/jewel/here-when-gone-chords.htm
Привет, Гость.
Предлагаем пройти революционный курс по гитаре.
Подарок от PrimaNota.Ru, забирай!