PrimaNota.ru - самый крупный в мире бесплатный архив песенных текстов, аккордов, табулатур и нот


Jewel - Near You Always - текст песни, таба, видео

Регистрация Запомнить меня
Войти через:  Facebook Google Twitter Vk Yandex Mail.ru

Jewel - Near You Always - текст песни, таба, видео

Печатать
Просмотров: 97
Авторы музыки: Jewel
Авторы текста: Jewel
Jewel - Near You Always
   
       
Tuning-  Open Db tuning D A D F# A D
Intro

 D|-----0-----------0--------|-----0-----------0--------|
 A|--5-----5-----5-----5-----|--5-----5-----5-----5-----|
F#|--------------------------|--------------------------|
 D|--0--------0--------------|--------------------------|
 A|--------------4--------4--|--2--------2--0-----------|
 D|--------------------------|-----------------------0--|
     

 D|-----0-----------0--------|-----0-----------0--------|
 A|--------------------------|--------------------------|
F#|--5-----5-----4-----4-----|--3-----3-----2-----2-----|
 D|--------------------------|--------------------------|
 A|--------------------------|--------------------------|
 D|--5--------5--5--------5--|--4--------4--3--------3--|
     

 D|-----0-----------0--------|--0--0-------5*----------|
 A|--------------------------|--0-----0----5*----------|
F#|--1-----1-----1-----1-----|--0--------0-5*----------|
 D|--------------------------|--0----------5*----------|
 A|--------------------------|--0----------5*----------|
 D|--2--------2--2--------2--|--0----------5*----------|
     
Verse

 D|-----0-----------0--------|-----0-----------0--------|  
 A|--5-----5-----5-----5-----|--5-----5-----5-----5-----|   
F#|--------------------------|--------------------------|   
 D|--0--------0--------------|--------------------------|   |
 A|--------------4--------4--|--2--------2--0-----------|   |
 D|--------------------------|-----------------------0--|   | PLAY
                                                            | TWO TIMES
                                                            |
 D|-----0-----------0--------|-----0-----------0--------|   |
 A|--------------------------|--4-----4--0--2-----4--0--|   |
F#|--5-----5-----5-----5-----|--------------------------|   |
 D|--------------------------|--------------------------|   
 A|--------------------------|--------------------------|   
 D|--5--------5--5--------5--|--0--------0--0-----0-----|  
    

 D|--------------------------|--0--0--------0--0--------|
 A|-----2-----------2--------|--0-----0-----0-----0-----|
F#|--5-----5-----5-----5-----|--0--------0--0-----------|
 D|--------------------------|--0-----------0-----------|
 A|--2--------2--2--------2--|--0-----------0-----------|
 D|--------------------------|--0-----------0--------0--|
     

 D|-----0-----------0--------|-----0-----------0--------|
 A|--------------------------|--------------------------|
F#|--5-----5-----4-----4-----|--3-----3-----2-----2-----|
 D|--------------------------|--------------------------|
 A|--------------------------|--------------------------|
 D|--5--------5--5--------5--|--4--------4--3--------3--|
    

 D|-----0-----------0--------|--0--0-------5*----------|
 A|--------------------------|--0-----0----5*----------|
F#|--1-----1-----1-----1-----|--0--------0-5*----------|
 D|--------------------------|--0----------5*----------|
 A|--------------------------|--0----------5*----------|
 D|--2--------2--2--------2--|--0----------5*----------|
     
Bridge

 D|--7-----------5-----------|--4-----4-----------------|
 A|-----7-----7-----7-----7--|-----0-----0--4-----5-----|
F#|--------0-----------0-----|-----------------0-----0--|
 D|--------------------------|--------------------------|
 A|--7-----------7-----------|--------------0-----0-----|
 D|--------------------------|--------------------------|
     

 D|--5-----------4-----------|--2-----2-----------------|
 A|-----0-----0-----0-----0--|-----0-----0--4-----5-----|
F#|--------0-----------0-----|-----------------0-----0--|
 D|--------------------------|--------------------------|
 A|--5-----------5-----------|--------------0-----0-----|
 D|--------------------------|--------------------------|
     

 D|--7-----------5-----------|--4-----4-----------------|
 A|-----7-----7-----7-----7--|-----0-----0--4-----5-----|
F#|--------0-----------0-----|-----------------0-----0--|
 D|--------------------------|--------------------------|
 A|--7-----------7-----------|--------------0-----0-----|
 D|--------------------------|--------------------------|
     

 D|--5-----------4-----------|--2-----------2-----------|
 A|-----0-----0-----0-----0--|-----4-----4-----4-----4--|
F#|--------0-----------0-----|--------0-----------0-----|
 D|--------------------------|--------------------------|
 A|--5-----------5-----------|--4-----------4-----------|
 D|--------------------------|--------------------------|
     

 D|--0-----------0-----------|-----0-----------0--------|
 A|-----2-----2-----2-----2--|--4-----4-----5-----5-----|
F#|--------0-----------0-----|-----------2--------------|
 D|--------------------------|--------------------------|
 A|--2-----------2-----------|--2-----------2-----------|
 D|--------------------------|-----------------------0--|
     

 D|-----0-----------0--------|-----0-----------0--------|
 A|--------------------------|--------------------------|
F#|--5-----5-----4-----4-----|--3-----3-----2-----2-----|
 D|--------------------------|--------------------------|
 A|--------------------------|--------------------------|
 D|--5--------5--5--------5--|--4--------4--3--------3--|
     

 D|-----0-----------0--------|--0--0-------5*----------|
 A|--------------------------|--0-----0----5*----------|
F#|--1-----1-----1-----1-----|--0--------0-5*----------|
 D|--------------------------|--0----------5*----------|
 A|--------------------------|--0----------5*----------|
 D|--2--------2--2--------2--|--0----------5*----------|
     
INSTRUMENTAL

 D|--2-p0-----0-----0--------|--2-p0-----0--------------|
 A|--------4-----5--------0--|--------4-----0-----2-p0--|
F#|--------------------0-----|-----------------0--------|
 D|--------------------------|--------------------------|
 A|--------------------------|--------------------------|
 D|--------------------------|--------------------------|
     

 D|--------|
 A|-----0--|
F#|--5-----|      
 D|--------|
 A|--------|
 D|--------|
    

 D|--2-p0-----0-----0--------|--2-p0-----0--------------|
 A|--------4-----5--------0--|--------4-----0-----2-p0--|
F#|--------------------0-----|-----------------0--------|
 D|--------------------------|--------------------------|
 A|--------------------------|--------------------------|
 D|--------------------------|--------------------------|
     

 D|--0-----|
 A|-----0--|
F#|--------|      
 D|--------|           
 A|--------|
 D|--------|
   

 D|--------------------------|--------------------------|
 A|-----0-----0-----0--0-----|-----0--0--------0--0-----|
F#|--2-----1-----0--------0--|-----------0-----------0--|
 D|--------------------------|--4-----------3-----------|
 A|--------------------------|--------------------------|
 D|--------------------------|--------------------------|
     

 D|-----------------0--------|-5*----------------------|
 A|-----0--------------0-----|-5*----------------------|
F#|-----------------------0--|-5*----------------------|
 D|--2-----------0-----------|-5*----------------------|
 A|--------2/4---------------|-5*----------------------|
 D|--------------------------|-5*----------------------|
     




 
Добавлено: 04.10.2013
Другие материалы по этой песне:
  • Аккорды и текст

Страница создана 21.04.2012
http://primanota.ru/jewel/near-you-always-chords.htm
Привет, Гость.
Предлагаем пройти революционный курс по гитаре.
Подарок от PrimaNota.Ru, забирай!