PrimaNota.ru - самый крупный в мире бесплатный архив песенных текстов, аккордов, табулатур и нот


Jet - Stand Up - текст песни, таба, драм-таба, видео

Регистрация Запомнить меня
Войти через:  Facebook Google Twitter Vk Yandex Mail.ru

Jet - Stand Up - текст песни, таба, драм-таба, видео

Печатать
Просмотров: 276
intro:
[-------]
[-------]
[-------]
[-------]
[-5-3-2-]
[-3-3-3-]
verse:
[-------------------------------------------------------]
[-------------------------------------------------------]
[-----------------------------------------7-------------]
[-----------5-3---------5------5-3--------5-5-3-5-3-5-5-]
[-5-5--5-5------5-3-------5-5-----5-3---3---3-1-3-1-5-5-]
[-3-3--3-3-3--------6-3---3-3-3------6-3------------3-3-]

pre-chorus:
[---------------------------------------]
[---------------------------------------]
[-----------------5b-5------------------]
[------------7-7-------5-----------7----]
[--7-7--5-5--5-5---------7-7--5-5--5----]
[--5-5--3-3--------------5-5--3-3-------]

chorus:
[---------------------------------------------------]
[---------------------------------------------------]
[--------------------------------------------7------]
[-9-9-7-7-------9-9-7-7-------9-9-7-7----------7----]
[-7-7-5-5-7-7-7-7-7-5-5-7-7-7-7-7-5-5-7-7-7------7--]
[---------5-5-5---------5-5-5---------5-5-5---------]
Добавлено: 26.06.2012
Другие материалы по этой песне:
  • Аккорды и текст

Страница создана 16.03.2012
http://primanota.ru/jet/stand-up-chords.htm
Привет, Гость.
Предлагаем пройти революционный курс по гитаре.
Подарок от PrimaNota.Ru, забирай!