PrimaNota.ru - самый крупный в мире бесплатный архив песенных текстов, аккордов, табулатур и нот


Jet - Get Born - таба, видео

Регистрация Запомнить меня
Войти через:  Facebook Google Twitter Vk Yandex Mail.ru

Jet - Get Born - таба, видео

Печатать
Просмотров: 156
I didn't tab any of these songs,i just thought
it would be easier for people to find jet tabs.
(All of these tabs have 5 stars except for Rollover
D.J., Cold Hard Bitch, and Take it Or Leave it, but
i think they should have 5 stars.)


Order (Alphabetically)

1  Are You Gonna Be My Girl
2  Cold Hard Bitch
3  Come Around Again
4  Get Me Outta Here
5  Get What You Need
6  Last Chance
7  Lazy Gun
8  Look What You've Done
9  Move On
10 Radio Song
11 Rollover D.J.
12 Take It Or Leave It
13 Timothy

======================================================================

1 Are You Gonna Be My Girl

By Unregistered

**Tambourine**

**Bass Enters**

**Drums Enter**

Guitar 1:
E-------------------|
B---5-7b-7b-5-------|
G---5-7b-7b-5-------|
D-7-----------7-7-5-|
A-------------------|
E-------------------|

"uh-go!"

Both guitars:
E--------------------|
B------------------5-|
G------------------5-|
D-7-7-7-x-7-7-7-7-7--|
A-7-7-7-x-7-7-7-7-7--|
E-5-5-5-x-5-5-5-5-5--|

E---------------------|
B---------------------|
G---------------------|
D-7-7-7-x-7-7-7-7-7-5-|
A-7-7-7-x-7-7-7-7-7-5-|
E-5-5-5-x-5-5-5-5-5-5-|

E--------------------|
B------------------5-|
G------------------5-|
D-7-7-7-x-7-7-7-7-7--|
A-7-7-7-x-7-7-7-7-7--|
E-5-5-5-x-5-5-5-5-5--|

E---------------------|
B---5-7b-7b-5---------|
G---5-7b-7b-5---------|
D-7-----------7-7-5-7-|
A-------------------7-|
E-------------------5-|


"Well it's a 1, 2, 3
Take my hand and come with me
Becasue you look so fine
That i really wanna make you mine."

E----------------------|
B------------------5---|
G------------------5---|
D-7-7-7-x-7-7-7-7-7--7-|
A-7-7-7-x-7-7-7-7-7--7-|
E-5-5-5-x-5-5-5-5-5--5-|


"I said you look so fine
That I really wanna make you mine."


E-----------------------|
B-----------------------|
G-----------------------|
D-7-7-7-x-7-7-7-7-7-5-7-|
A-7-7-7-x-7-7-7-7-7-5-7-|
E-5-5-5-x-5-5-5-5-5-5-5-|

"4, 5, 6
Come on and get your kicks
Now you don't need the money
When you look like that do ya' honey?"

E--------------------|
B------------------5-|
G------------------5-|
D-7-7-7-x-7-7-7-7-7--|
A-7-7-7-x-7-7-7-7-7--|
E-5-5-5-x-5-5-5-5-5--|

E-------------------|
B---5-7b-7b-5-------|
G---5-7b-7b-5-------|
D-7-----------7-7-5-|
A-------------------|
E-------------------|


E----------------------------------------|
B----------------------------------------|
G----------------------------------------|
D---------------x-12----------------x-12-|
A-12-12-12-x-10-x-10--12-12-12-x-10-x-10-|
E-10-10-10-x-8--------10-10-10-x-8-------|

"Big Black Boots"    "long Brown Hair"

E------------------------------------------|
B------------------------------------------|
G------------------------------------------|
D---------------x-12-----------------------|
A-12-12-12-x-10-x-10--12-12-12-12-12-12-12-|
E-10-10-10-x-8--------10-10-10-10-10-10-10-|

 "She's so cute with her... get back stare"


E-------------------------------------------|
B-------------------------------------------|
G-----------------------5-5-5-5-5-5-5-5-5-5-|
D-7-7-7-7-7-7-7-7-7-7-7-5-5-5-5-5-5-5-5-5-5-|
A-7-7-7-7-7-7-7-7-7-7-7-3-3-3-3-3-3-3-3-3-3-|
E-5-5-5-5-5-5-5-5-5-5-5---------------------|

  "I could see"          "You home with me"


E---------------------------------------------|
B---------------------------------------------|
G-7-7-7-7-7-7-7-7-7-7-7-----------------------|
D-7-7-7-7-7-7-7-7-7-7-7-7-7-7-7-7-7-7-7-7-7-7-|
A-5-5-5-5-5-5-5-5-5-5-5-7-7-7-7-7-7-7-7-7-7-7-|
E-----------------------5-5-5-5-5-5-5-5-5-5-5-|

   "but you were with another man... yeah"


E-------------------------------------------|
B-------------------------------------------|
G-----------------------5-5-5-5-5-5-5-5-5-5-|
D-7-7-7-7-7-7-7-7-7-7-7-5-5-5-5-5-5-5-5-5-5-|
A-7-7-7-7-7-7-7-7-7-7-7-3-3-3-3-3-3-3-3-3-3-|
E-5-5-5-5-5-5-5-5-5-5-5---------------------|

"I know we ain't got"     "Much to say"


E---------------------------------------------|
B---------------------------------------------|
G-7-7-7-7-7-7-7-7-7-7-7-----------------------|
D-7-7-7-7-7-7-7-7-7-7-7-7-7-7-7-7-7-7-7-7-7-7-|
A-5-5-5-5-5-5-5-5-5-5-5-7-7-7-7-7-7-7-7-7-7-7-|
E-----------------------5-5-5-5-5-5-5-5-5-5-5-|

"Before I let you get away... yeah"

guitar 1:
E--------------------------|
B--------------------------|
G--------------------------|
D-9-9-9--9-9-9-9-9/12-12~~-|
A-7-7-7--7-7-7-7-7/10-10~~-|
E--------------------------|

guitar 2:
E----------------------|
B----------------------|
G----------------------|
D-2-2-2--2-2-2-2-5-5~~-|
A-0-0-0--0-0-0-0-3-3~~-|
E----------------------|

"I said are you gonna be my girl?"

Guitar 1:
E------------------------------------------|
B------------------5-----------------------|
G------------------5-----------------------|
D-7-7-7-x-7-7-7-7-7--7-7-7-7-x-7-7-7-7-7-5-|
A-7-7-7-x-7-7-7-7-7--7-7-7-7-x-7-7-7-7-7-5-|
E-5-5-5-x-5-5-5-5-5--5-5-5-5-x-5-5-5-5-5-5-|

E----------------------------------------|
B------------------5---5-7b-7b-5---------|
G------------------5---5-7b-7b-5---------|
D-7-7-7-x-7-7-7-7-7--7-----------7-7-5-7-|
A-7-7-7-x-7-7-7-7-7--------------------7-|
E-5-5-5-x-5-5-5-5-5--------------------5-|

Guitar 2:
E-------------------------------------------|
B---------------5-7-5-----------------------|
G---------------5-7-5-----------------------|
D-7-7-7-7-7-7-7-------7-7-7-7-x-7-7-7-7-7-5-|
A-7-7-7-7-7-7-7---------7-7-7-x-7-7-7-7-7-5-|
E-5-5-5-5-5-5-5---------5-5-5-x-5-5-5-5-5-5-|

E----------------------------------------|
B------------------5---5-7b-7b-5---------|
G------------------5---5-7b-7b-5---------|
D-7-7-7-x-7-7-7-7-7--7-----------7-7-5-7-|
A-7-7-7-x-7-7-7-7-7--------------------7-|
E-5-5-5-x-5-5-5-5-5--------------------5-|


"Well it's a 1, 2, 3
Take my hand and come with me
Becasue you look so fine
That i really wanna make you mine."

E----------------------|
B------------------5---|
G------------------5---|
D-7-7-7-x-7-7-7-7-7--7-|
A-7-7-7-x-7-7-7-7-7--7-|
E-5-5-5-x-5-5-5-5-5--5-|

"Well it's a 1, 2, 3
Take my hand and come with me
Becasue you look so fine
That i really wanna make you mine."

E----------------------|
B------------------5---|
G------------------5---|
D-7-7-7-x-7-7-7-7-7--7-|
A-7-7-7-x-7-7-7-7-7--7-|
E-5-5-5-x-5-5-5-5-5--5-|


"I said you look so fine
That I really wanna make you mine."


E-----------------------|
B-----------------------|
G-----------------------|
D-7-7-7-x-7-7-7-7-7-5-7-|
A-7-7-7-x-7-7-7-7-7-5-7-|
E-5-5-5-x-5-5-5-5-5-5-5-|

"4, 5, 6
Come on and get your kicks
Now you don't need the money
With a face like that do ya'?"

E----------------------|
B------------------5---|
G------------------5---|
D-7-7-7-x-7-7-7-7-7--7-|
A-7-7-7-x-7-7-7-7-7--7-|
E-5-5-5-x-5-5-5-5-5--5-|

E-------------------|
B---5-7b-7b-5-------|
G---5-7b-7b-5-------|
D-7-----------7-7-5-|
A-------------------|

E----------------------------------------|
B----------------------------------------|
G----------------------------------------|
D---------------x-12----------------x-12-|
A-12-12-12-x-10-x-10--12-12-12-x-10-x-10-|
E-10-10-10-x-8--------10-10-10-x-8-------|

"Big Black Boots"    "long Brown Hair"

E------------------------------------------|
B------------------------------------------|
G------------------------------------------|
D---------------x-12-----------------------|
A-12-12-12-x-10-x-10--12-12-12-12-12-12-12-|
E-10-10-10-x-8--------10-10-10-10-10-10-10-|

 "She's so cute with her... get back stare"


E-------------------------------------------|
B-------------------------------------------|
G-----------------------5-5-5-5-5-5-5-5-5-5-|
D-7-7-7-7-7-7-7-7-7-7-7-5-5-5-5-5-5-5-5-5-5-|
A-7-7-7-7-7-7-7-7-7-7-7-3-3-3-3-3-3-3-3-3-3-|
E-5-5-5-5-5-5-5-5-5-5-5---------------------|

  "I could see"          "You home with me"


E---------------------------------------------|
B---------------------------------------------|
G-7-7-7-7-7-7-7-7-7-7-7-----------------------|
D-7-7-7-7-7-7-7-7-7-7-7-7-7-7-7-7-7-7-7-7-7-7-|
A-5-5-5-5-5-5-5-5-5-5-5-7-7-7-7-7-7-7-7-7-7-7-|
E-----------------------5-5-5-5-5-5-5-5-5-5-5-|

   "but you were with another man... yeah"


E-------------------------------------------|
B-------------------------------------------|
G-----------------------5-5-5-5-5-5-5-5-5-5-|
D-7-7-7-7-7-7-7-7-7-7-7-5-5-5-5-5-5-5-5-5-5-|
A-7-7-7-7-7-7-7-7-7-7-7-3-3-3-3-3-3-3-3-3-3-|
E-5-5-5-5-5-5-5-5-5-5-5---------------------|

"I know we ain't got"     "Much to say"


E---------------------------------------------|
B---------------------------------------------|
G-7-7-7-7-7-7-7-7-7-7-7-----------------------|
D-7-7-7-7-7-7-7-7-7-7-7-7-7-7-7-7-7-7-7-7-7-7-|
A-5-5-5-5-5-5-5-5-5-5-5-7-7-7-7-7-7-7-7-7-7-7-|
E-----------------------5-5-5-5-5-5-5-5-5-5-5-|

"Before I let you get away... yeah"


guitar 1:
E-------------------------|
B-------------------------|
G-------------------------|
D-9-9-9-9-9-9-9-9/12-12~~-|
A-7-7-7-7-7-7-7-7/10-10~~-|
E-------------------------|

guitar 2:
E---------------------|
B---------------------|
G---------------------|
D-2-2-2-2-2-2-2-5-5~~-|
A-0-0-0-0-0-0-0-3-3~~-|
E---------------------|

"I said are you gonna be my girl?"


SOLO:

E-------------------------------|
B-14-14-14-14-14-14-14-14-14-14-|
G-14-14-14-14-14-14-14-14-14-14-|
D-------------------------------|
A-------------------------------|
E-------------------------------| X5

E-------------------------------|
B-15-15-15-15-15-15-15-15-15-15-|
G-14-14-14-14-14-14-14-14-14-14-|
D-------------------------------|
A-------------------------------|
E-------------------------------|

E-14-14-14-14-14-14-14-14-14-14-|
B-15-15-15-15-15-15-15-15-15-15-|
G-14-14-14-14-14-14-14-14-14-14-|
D-------------------------------|
A-------------------------------|
E-------------------------------|

E-------------------------------|
B-14-14-14-14-14-14-14-14-14-14-|
G-14-14-14-14-14-14-14-14-14-14-|
D-------------------------------|
A-------------------------------|
E-------------------------------| X2

E-------------------------------|
B-15-15-15-15-15-15-15-15-15-15-|
G-14-14-14-14-14-14-14-14-14-14-|
D-------------------------------|
A-------------------------------|
E-------------------------------|

E-14-14-14-14-14-14-14-14-14-14-|
B-15-15-15-15-15-15-15-15-15-15-|
G-14-14-14-14-14-14-14-14-14-14-|
D-------------------------------|
A-------------------------------|
E-------------------------------|

E-------------------------------|
B-14-14-14-14-14-14-14-14-14-14-|
G-14-14-14-14-14-14-14-14-14-14-|
D-------------------------------|
A-------------------------------|
E-------------------------------|

E-12-----------10------------------------12-----------|
B----10-12b-10----10-12b-10----10-12b-10----10-12b-10-|
G----------------------------9------------------------|
D-----------------------------------------------------|
A-----------------------------------------------------|
E-----------------------------------------------------|

you play this 2 times. Then the Vocals come back in and
you still play it, but it takes 3 guitarists to do the
and the solo over it.

Guitar 2:
E----------------------------|
B----------------------------|
G----------------------------|
D-7-7-7-7-7-7-7-7-7-7-7------|
A-7-7-7-7-7-7-7-7-7-7-7------|
E-5-5-5-5-5-5-5-5-5-5-5  X14-|

E---------|
B-5-7-5---|
G-5-7-5---|
D-------7-|
A---------|
E---------|

at about the 15th time you do this inbetween the riffs


E-------------------|
B---------------7-5-|
G---------------7-5-|
D-7-7-7-7-7-7-7-----|  after that you do this a couple times.
A-7-7-7-7-7-7-7-----|
E-5-5-5-5-5-5-5-----|


Both guitars:
E------------------------------------------|
B------------------------------------------|
G------------------------------------------|
D---------------x-12-----------------------|
A-12-12-12-x-10-x-10--12-12-12-12-12-12-12-|
E-10-10-10-x-8--------10-10-10-10-10-10-10-|

 "She's so cute with her... get back stare"


E-------------------------------------------|
B-------------------------------------------|
G-----------------------5-5-5-5-5-5-5-5-5-5-|
D-7-7-7-7-7-7-7-7-7-7-7-5-5-5-5-5-5-5-5-5-5-|
A-7-7-7-7-7-7-7-7-7-7-7-3-3-3-3-3-3-3-3-3-3-|
E-5-5-5-5-5-5-5-5-5-5-5---------------------|

  "I could see"          "You home with me"


E---------------------------------------------|
B---------------------------------------------|
G-7-7-7-7-7-7-7-7-7-7-7-----------------------|
D-7-7-7-7-7-7-7-7-7-7-7-7-7-7-7-7-7-7-7-7-7-7-|
A-5-5-5-5-5-5-5-5-5-5-5-7-7-7-7-7-7-7-7-7-7-7-|
E-----------------------5-5-5-5-5-5-5-5-5-5-5-|

   "but you were with another man... yeah"


E-------------------------------------------|
B-------------------------------------------|
G-----------------------5-5-5-5-5-5-5-5-5-5-|
D-7-7-7-7-7-7-7-7-7-7-7-5-5-5-5-5-5-5-5-5-5-|
A-7-7-7-7-7-7-7-7-7-7-7-3-3-3-3-3-3-3-3-3-3-|
E-5-5-5-5-5-5-5-5-5-5-5---------------------|

"I know we ain't got"     "Much to say"


E---------------------------------------------|
B---------------------------------------------|
G-7-7-7-7-7-7-7-7-7-7-7-----------------------|
D-7-7-7-7-7-7-7-7-7-7-7-7-7-7-7-7-7-7-7-7-7-7-|
A-5-5-5-5-5-5-5-5-5-5-5-7-7-7-7-7-7-7-7-7-7-7-|
E-----------------------5-5-5-5-5-5-5-5-5-5-5-|

"Before I let you get away... yeah"


E-----------------------|
B-----------------------|
G-----------------------|
D-7-7-7-7-7-7-7-7-7-7-7-|
A-7-7-7-7-7-7-7-7-7-7-7-|
E-5-5-5-5-5-5-5-5-5-5-5-|

      "Be my girl"

E-------------------------------------------|
B-------------------------------------------|
G-5-5-5-5-5-5-5-5-5-5-7-7-7-7-7-7-7-7-7-7-7-|
D-5-5-5-5-5-5-5-5-5-5-7-7-7-7-7-7-7-7-7-7-7-|
A-3-3-3-3-3-3-3-3-3-3-5-5-5-5-5-5-5-5-5-5-5-|
E-------------------------------------------|

"be   my   girl"   "I said are you gonna be my girl?... yeah"

E------------------------|
B------------------------|
G------------------------|
D-------------5-7-7------|~~~\
A-7-7-7-7-7-7-3-5-5------|~~~\
E-5-5-5-5-5-5------------|

=========================================================================

2 Cold Hard Bitch

By Ray-Unregistered

Intro Guitar 1: (Through entire intro guitar one palm mute A string)
e|--------------------------------------------|
B|--------------------------------------------|
G|--------------------------------------------|
D|-7~-----------------------------------------|
A|-0~-------0-0-0-0-0-0-0-0-0-0-0-0-0-0-0-0-0-|
E|--------------------------------------------|

e|-------------------------------|
B|-------------------------------|
G|-----7---------7---7-----------|
D|-----7---------7-7-7-7---7-----|
A|-0-0---0-0-0-0-----------0-0-0-|
E|-------------------------------|

Part 2
e|------------------------------------|
B|------------------------------------|
G|------7----------7---7--------------|
D|------7---7------7-7-7-7---7--------|
A|0-0-0---0-0-0-0----------0-0-0-0-3--|
E|------------------------------------|
Repeat the part 2 four times

Intro Guitar 2:
e|---------|
B|---------|
G|---------|
D|-2-4-2-4-|
A|-0-0-0-0-|
E|---------|(Play a few seconds before Guitar 1 comes in with the part 2)

e|----------------------------|
B|----------------------------|
G|----------------------------|
D|-5--4--2-4-2--5--4--2-4-2-4-|
A|-0--0--0-0-0--0--0--0-0-0-0-|
E|----------------------------|3x

e|-----------------------|
B|--------------3-3------|
G|--------------2-2--2-2-|
D|---5--4--2-4--0-0--2-2-|
A|---0--0--0-0-------0-0-|
E|-----------------------|

Both Guitars:
e|-3-|
B|-3-|
G|-0-|
D|-0-|
A|-X-|
E|-3-| Play a lot
 Yeah!

e|-------------------|
B|-----------------3-|
G|-2--2-2----------2-|
D|-2--2-2----------0-|
A|-0--0-0------------|
E|---------0-3-0-3---|3X

e|-----------------|
B|-----------------|
G|-2--2-2----------|
D|-2--2-2----------|
A|-0--0-0----------|
E|---------0-3-0-3-|

Verse: (both guitars)
e|---------------------------------3-------|
B|---------------------------------3---3---|
G|-2-------------------------------0---2---|
D|-2-------------------------------0---0---|
A|-0-------------------------------x-------|
E|---------------------------------3-------|
   Gotta leave town, got another apointment

e|-----------------|
B|-----------------|
G|-2--2-2----------|
D|-2--2-2----------|
A|-0--0-0----------|
E|---------0-3-0-3-|

e|--------------------------------------3---------|
B|--------------------------------------3-----3---|
G|-2------------------------------------0-----2---|
D|-2------------------------------------0-----0---|
A|-0------------------------------------x---------|
E|--------------------------------------3---------|
   Spent all my rent, girl you know i enjoyed it, yeah!

e|----------------------------------------------------|
B|--3~------------------------------------------------|
G|--2~let ring----------------------------------------|
D|--0~------------------------------------------------|
A|----------------------------------------------------|
E|--------------------------------------------0--0-0--|
    Gonna hang around till theres nobody dancin, I dont

e|---------------------------3---------------------------|
B|---------------------------3---------------------------|
G|---------------------------0-----------------------0-0-|
D|-2-------------------------0-----------------------0-0-|
A|-2-------------------------x-----------------------0-0-|
E|-0--------------------0----3---------------------------|
   wanna hold hands and talk about our little plans, alright!

e|---------------------------------|
B|-3--3--3--3-3-3-3--3--3--3-3-3-3-|
G|-2--2--2--0-2-0-2--0--2--0-2-2-0-|
D|-0--0--0--x-0-x-0--x--0--x-0-0-x-|
A|----------3---3----3-----3-----3-|
E|---------------------------------|

Chorus: (Both guitars)
e|----------------------------3-------------------3-------|
B|----------------------------3-------------------3-----3-|
G|-2-----------------2--------0-------------------0-----2-|
D|-2-----------------2--------0-------------------0-----0-|
A|-0-----------------0--------x-------------------x-------|
E|----------------------------3-------------------3-------|
   Cold hard bitch, shes just a kiss on the lips, and I was

e|---------------------------------|
B|-3-------------------------------|
G|-2-------------------------------|
D|-0---------------3---3----5----5-|
A|-----------------3---3----5----5-|
E|--------------0--1-0-1-0--3----3-| Repeat once
   on my knees, Im waiting, give me

Interlude 1:
e|----------------------------------|
B|--------------------------------3-|
G|--2---2-2---2-2---2-2-----------2-|
D|--2---2-2---2-2---2-2-----------0-|
A|----------------------------------|
E|------------------------0-3-0-3---|
Repeat verse
Repeat chorus

Interlude 2:
e|----3---3--------------------|
B|----3---3--3---3-------------|
G|-2--0---0--2---2-----2-------|
D|-2--0---0--0---0-----2-------|
A|-0--x---x------------0-------|
E|----3---3--------0-3---0-3-0-|Repeat 6x

Repeat Intro again, except start with guitar 2
Repeat chorus

=======================================================================

3 Come Around Again

By jet_get_born


h=hammer-on
p=pull off

(intro)
     Em
e|------------------------------|                        e|--3-|
B|------------------------------|                        B|--2-|
G|-------0--------0-----------0-| x 6 last time with a   G|--0-|
D|-----0--------0---0h2p0-------|                        D|--0-|
A|-0h2------0h2------------2----|                        A|--0-|
E|------------------------------|                        E|--3-|


(verse)

           G
Yeah I'm waiting

                       D
For you it's been so long

                          C
Yeah im sad when im on my own

                     G      D     C
They said it takes a long long time

                D
If it's not too much

          G    D     C
Could you hear me now


(chorus)

        D
You promised me you'd always be

                                    C
When I wake up please come around again

              G
Come around again

       D
You promised me you'd always be

                                    C
When I wake up please come around again

             G   D  C
Come around again yeah

(verse)

          G
Yeah im waiting

                      D
For you it's been so long.

                          C
Yeah im sad when im all alone

                     G      D     C
They said it takes a long long time

                 D
If it's not too much

           G   D   C
Could you hear me now


(chorus)

      D
You promised me you'd always be

                                    C
When I wake up please come around again

              G
Come around again

       D
You promised me you'd always be

                                   C
When I wake up please come around again


(Bridge)

                                     Am
Yeah theres something worth thinking about

                   D
Get it out of my head

                          Am
Something worth kicking around

                D
Something you said

                       G
I don't know when im right

                      D
I only know when im wrong

                 Am
 When you gonna live some life


Show it off

     C
And keep the lights from going off

              D
Cause I cant see


(verse)

          G                            D
Cause im waiting for you, its been so long

                          C
Yeah I'm lost but I'm at home

                       G   D    C
They said it takes a long long time

                 D
If it's not too much

           G   D   C
Could you hear me now?


              G
Come around again

              C
Come around again

                    G
Please come around again

=========================================================================

4 Get Me Outta Here

By Azdogga

b= bend
h= hammer on
P= pull off
x= mute
/= slide up to next note

E|---------------------------|---------------------------|
B|---------------------------|---------------------------|
G|---------------------------|---------------------------|
D|---------------------------|---------------------------|
A|---------------------------|---------------------------|
E|-5--5-3-5--5-0-3-5--5--5-3-|-5—-5-3-5--5-0-3-5-5--5----|


E|-0-------------------------|---------------------------|
B|-0-------------------------|---------------------------|
G|-0-------------------------|---------------------------|
D|-0-------------------------|---------------------------|
A|-0-------------------------|---------------------------|
E|-5--5-3-5--5-0-3-5--5--5-3-|-5—-5-3-5--5-0-3-5-5--5----|


E|---------------------------|---------------------------|
B|-2—-2---2--2-----2--2---2--|-2---2—--2—--2-----2---2---|
G|-2—-2---2--2-----2--2---2--|-2---2—--2—--2-----2---2---|
D|-2—-2---2--2-----2--2---2--|-2---2—--2—--2-----2---2---|
A|-0—-0---0--0-----0--0---0--|-0---0—--0—--0-----0---0---|
E|------3b-----0-3b--------3b|------3b-------0-3b--------|


                    I went down to the bank just to get me a pay.
E|---------------------------|---------------------------|
B|-2—-3-----2----------------|---------------------------|
G|-2—-2-----2----------------|---------------------------|
D|-2—-4-----2----------------|---------------------------|
A|-0—-0-----0----------------|---------------------------|
E|---------------------------|---------------------------|


I'm gonna get me, out of here.     I've got me some cash,
E|---------------------------|---------------------------|
B|-2—-2—-3-----3---3—-2---2--|-2------2------------------|
G|-2—-2—-2-----2---2—-2---2--|-2------2---------2--------|
D|-2—-2—-4-----4---4—-2---2--|-2---2—-2---2-----2--------|
A|-0—-0—-0-----0---0—-0---0--|-0---0—-0---3h4------------|
E|---------------------------|---------------------------|


I'm heading back to L.A., I'm gonna get me, outta here.
E|---------------------------|---------------------------|
B|-2—-2—-3-----3---3—-2---2--|-2h3-----2-----------------|
G|-2—-2—-2-----2---2—-2---2--|-2-------2-----------------|
D|-2—-2—-4-----4---4—-2---2--|-2h4-----2—----------------|
A|-0—-0—-0-----0---0—-0---0--|-0---—---0-----3--4--0-----|
E|---------------------------|---------------------------|


I'm sacking the man, 'cause the man's a thief.
E|---------------------------|---------------------------|
B|---2-2-2------2------------|---2-2-2------2-2----------|
G|---2-2-2------2------------|---2-2-2------2-2----------|
D|---2-2-2------2------------|---2-2-2------2-0----------|
A|---0-0-0------0------------|---0-0-0------0------------|
E|---------------------------|---------------------------|


E|---------------------------|---------------------------|
B|---2-2-2------2-2----------|---2-2-2------2-2----------|
G|---2-2-2------2-2----------|---2-2-2------2-2----------|
D|---2-2-2------2-0----------|---2-2-2------2-0----------|
A|---0-0-0------0------------|---0-0-0------0------------|
E|---------------------------|---------------------------|


I'm kicking the plan before the plan kicks me.
E|---------------------------|---------------------------|
B|---2-2-2------2------------|---2-2-2------2-2----------|
G|---2-2-2------2------------|---2-2-2------2-2----------|
D|---2-2-2------2------------|---2-2-2------2-0----------|
A|---0-0-0------0------------|---0-0-0------0------------|
E|---------------------------|---------------------------|


I'm gonna get me                 Get me outta here.
E|-3-----3-------3---3-—3—-3-|-2—-2—-2—-2—-2—-2—-2—-2----|
B|-3-----3-------3---3—-3—-3-|-3—-3—-3—-3—-3—-3--3—-3----|
G|-0-----0-------0---0—-0—-0-|-2—-2—-2—-2—-2—-2—-2—-2----|
D|-0-----0-------0---0—-0—-0-|-0--0--0--0--0--0--0--0----|
A|-x-----x-------x---x—-x—-x-|---------------------------|
E|-3-----3-------3---3—-3-—3-|---------------------------|

                                                                        I'm gonna
E|------—-—-—-—-—--—--—------|---------------------------|
B|-2—---2---—---2-—--2—------|-----2-----2-------2--2--2-|
G|-2—---2---—---2----2--—----|-----2-----2-------2--2--2-|
D|-2—---2---—---2----2-------|-----2-----2-------2--2--2-|
A|-0----0-------2----0-------|-----0-----0-------0--0--0-|
E|---------3b------------0---|-3b------------------------|


get me.    Get me outta here.
E|-3-----3-------3---3-—3—-3-|-2—-2—-2—-2—-2—-2—-2—-2----|
B|-3-----3-------3---3—-3—-3-|-3—-3—-3—-3—-3—-3--3—-3----|
G|-0-----0-------0---0—-0—-0-|-2—-2—-2—-2—-2—-2—-2—-2----|
D|-0-----0-------0---0—-0—-0-|-0--0--0--0--0--0--0--0----|
A|-x-----x-------x---x—-x—-x-|---------------------------|
E|-3-----3-------3---3—-3-—3-|---------------------------|


                                I went down to the Duke, ten time a day.
E|------—-—-—-—-—--—--—------|---------------------------|
B|-2—---2---—---2-—--2—------|-----2-----2---------------|
G|-2—---2---—---2----2--—----|-----2-----2---------------|
D|-2—---2---—---2----2-------|-----2-----2---------------|
A|-0----0-------2----0-------|-----0-----0---------------|
E|---------3b------------0---|-3b------------------------|


 I'm gonna get me            outta here.
E|---------------------------|---------------------------|
B|-2—-2—-3-----3---3—-2---2--|-2------2------------------|
G|-2—-2—-2-----2---2—-2---2--|-2------2---------2--------|
D|-2—-2—-4-----4---4—-2---2--|-2---2—-2---2-----2--------|
A|-0—-0—-0-----0---0—-0---0--|-0---0—-0---3h4------------|
E|---------------------------|---------------------------|


Drink all night and talking shit all day.    I'm gonna
E|---------------------------|---------------------------|
B|---------------------------|----------------2--2--3----|
G|---------------------------|----------------2--2--2----|
D|---------------------------|----------------2--2--4----|
A|---------------------------|----------------0--0--0----|
E|---------------------------|---------------------------|


get me                                  outta here.
E|---------------------------|---------------------------|
B|---3-----3---2------2------|--2------2-----------------|
G|---2-----2---2------2------|--2------2-----------------|
D|---4-----4---2------2------|--2------2-----------------|
A|---0-----0---0------0------|--0------0-----3—-4—-0-----|
E|---------------------------|---------------------------|


I'm sacking the man,  'cause the man's a thief
E|---------------------------|---------------------------|
B|---2-2-2------2------------|---2-2-2------2-2----------|
G|---2-2-2------2------------|---2-2-2------2-2----------|
D|---2-2-2------2------------|---2-2-2------2-0----------|
A|---0-0-0------0------------|---0-0-0------0------------|
E|---------------------------|---------------------------|


E|---------------------------|---------------------------|
B|---2-2-2------2-2----------|---2-2-2------2-2----------|
G|---2-2-2------2-2----------|---2-2-2------2-2----------|
D|---2-2-2------2-0----------|---2-2-2------2-0----------|
A|---0-0-0------0------------|---0-0-0------0------------|
E|---------------------------|---------------------------|


I'm kicking the plan before the plan kicks me.
E|---------------------------|---------------------------|
B|---2-2-2------2------------|---2-2-2------2-2----------|
G|---2-2-2------2------------|---2-2-2------2-2----------|
D|---2-2-2------2------------|---2-2-2------2-0----------|
A|---0-0-0------0------------|---0-0-0------0------------|
E|---------------------------|---------------------------|


I'm gonna get me                 Get me outta here.
E|-3-----3-------3---3-—3—-3-|-2—-2—-2—-2—-2—-2—-2—-2----|
B|-3-----3-------3---3—-3—-3-|-3—-3—-3—-3—-3—-3--3—-3----|
G|-0-----0-------0---0—-0—-0-|-2—-2—-2—-2—-2—-2—-2—-2----|
D|-0-----0-------0---0—-0—-0-|-0--0--0--0--0--0--0--0----|
A|-x-----x-------x---x—-x—-x-|---------------------------|
E|-3-----3-------3---3—-3-—3-|---------------------------|

                                                                        I'm gonna
E|------—-—-—-—-—--—--—------|---------------------------|
B|-2—---2---—---2-—--2—------|-----2-----2-------2--2--2-|
G|-2—---2---—---2----2--—----|-----2-----2-------2--2--2-|
D|-2—---2---—---2----2-------|-----2-----2-------2--2--2-|
A|-0----0-------2----0-------|-----0-----0-------0--0--0-|
E|---------3b------------0---|-3b------------------------|


get me.    Get me outta here.
E|-3-----3-------3---3-—3—-3-|-2—-2—-2—-2—-2—-2—-2—-2----|
B|-3-----3-------3---3—-3—-3-|-3—-3—-3—-3—-3—-3--3—-3----|
G|-0-----0-------0---0—-0—-0-|-2—-2—-2—-2—-2—-2—-2—-2----|
D|-0-----0-------0---0—-0—-0-|-0--0--0--0--0--0--0--0----|
A|-x-----x-------x---x—-x—-x-|---------------------------|
E|-3-----3-------3---3—-3-—3-|---------------------------|


E|---------------------------|---------------------------|
B|-2-------------------------|---------------------------|
G|-2-------------------------|---------------------------|
D|-2-------------------------|---------------------------|
A|-0-------------------------|---------------------------|
E|---------------------------|------------------------2/-|


E|---------------------------|---------------------------|
B|---------------------------|---------------------------|
G|---------------------------|---------------------------|
D|---------------------------|---------------------------|
A|---------------------------|---------------------------|
E|-5--5-3-5--5-0-3-5---5—-2/-|-5--5-3-5--5-0-3-5--5—-5-3-|


E|---------------------------|---------------------------|
B|---------------------------|---------------------------|
G|---------------------------|---------------------------|
D|---------------------------|---------------------------|
A|---------------------------|---------------------------|
E|-5--5-3-5--5-0-3-5--5--5-3-|-5—-5-3-5--5-0-3-5-5--5----|


E|---------------------------|---------------------------|
B|-2—-2---2--2-----2--2---2--|-2---2—--2—--2-----2-------|
G|-2—-2---2--2-----2--2---2--|-2---2—--2—--2-----2-------|
D|-2—-2---2--2-----2--2---2--|-2---2—--2—--2-----2-------|
A|-0—-0---0--0-----0--0---0--|-0---0—--0—--0-----0-------|
E|------3b-----0-3b--------3b|------3b-------0-3b---3-2-0|


I don't mind how I live my life with out the luck you got.
E|-0-----0--------0---0---0--|-3-----3--------3---3------|
B|-0-----0--------0---0---0--|-3-----3--------3---3------|
G|-1-----1--------1---1---1--|-0-----0--------0---0------|
D|-2-----2--------2---2---2--|-0-----0--------0---0------|
A|-2-----2--------2---2---2--|-x-----x--------x---x------|
E|-0-----0--------0---0---0--|-3-----3--------3---3------|


E|---------------------------|---------------------------|
B|-2---2--------2--------2---|---------------------------|
G|-2---2--------2--------2---|----4b----4p2-----2--------|
D|-2---2--------2--------2---|---------------4--2--------|
A|-0---0---3/4------3/4------|----------------------2p0--|
E|---------------------------|---------------------------|


 But  I  ain't  try'n'  to  keep  in  time, so  just  keep
E|-0-----0--------0---0---0--|-3-----3--------3---3------|
B|-0-----0--------0---0---0--|-3-----3--------3---3------|
G|-1-----1--------1---1---1--|-0-----0--------0---0------|
D|-2-----2--------2---2---2--|-0-----0--------0---0------|
A|-2-----2--------2---2---2--|-x-----x--------x---x------|
E|-0-----0--------0---0---0--|-3-----3--------3---3------|


 off of my ride
E|---------------------------|---------------------------|
B|-2---2--------2------------|---------------------------|
G|-2---2--------2--------4b--|-4---2-------2-------------|
D|-2---2--------2------------|-4-------4---2-------------|
A|-0---0---3/4------3/4------|-----------------3p0-------|
E|---------------------------|-----------------------3p0-|


You  won't  hang  your  rusty  sign  on  me.
E|-0-----0--------0---0---0--|-3-----3--------3---3------|
B|-0-----0--------0---0---0--|-3-----3--------3---3------|
G|-1-----1--------1---1---1--|-0-----0--------0---0------|
D|-2-----2--------2---2---2--|-0-----0--------0---0------|
A|-2-----2--------2---2---2--|-x-----x--------x---x------|
E|-0-----0--------0---0---0--|-3-----3--------3---3------|


E|-2-------------------------|---------------------------|
B|-3-------------------------|---------------------------|
G|-2-------------------------|---------------------------|
D|-0-------------------------|---------------------------|
A|---------------------------|---------------------------|
E|---------------------------|---------------------------|


E|---------------------------|---------------------------|
B|---------------------------|---------------------------|
G|-2---2--------2---2--------|-2---2--------2---2--------|
D|-2---2--------2---2--------|-2---2--------2---2--------|
A|---------------------------|---------------------------|
E|---------------------------|---------------------------|


 I  went  down  to  bank  just  to  get  me  my  pay.
E|---------------------------|---------------------------|
B|---------------------------|---------------------------|
G|-2---2--------2---2--------|-2---2--------2---2--------|
D|-2---2--------2---2--------|-2---2--------2---2--------|
A|---------------------------|---------------------------|
E|---------------------------|---------------------------|


                                                Get  me  out  of  here.
E|-3-----3-------3---3-—3—-3-|-2—-2—-2—-2—-2—-2—-2—-2----|
B|-3-----3-------3---3—-3—-3-|-3—-3—-3—-3—-3—-3--3—-3----|
G|-0-----0-------0---0—-0—-0-|-2—-2—-2—-2—-2—-2—-2—-2----|
D|-0-----0-------0---0—-0—-0-|-0--0--0--0--0--0--0--0----|
A|-x-----x-------x---x—-x—-x-|---------------------------|
E|-3-----3-------3---3—-3-—3-|---------------------------|


E|------—-—-—-—-—--—--—------|---------------------------|
B|-2—---2---—---2-—--2—------|-----2-----2-------2--2--2-|
G|-2—---2---—---2----2--—----|-----2-----2-------2--2--2-|
D|-2—---2---—---2----2-------|-----2-----2-------2--2--2-|
A|-0----0-------2----0-------|-----0-----0-------0--0--0-|
E|---------3b------------0---|-3b------------------------|


 I'm  gonna  get  me.           Get  me  out  of  here, yeah!
E|-3-----3-------3---3-—3—-3-|-2—-2—-2—-2—-2—-2—-2—-2----|
B|-3-----3-------3---3—-3—-3-|-3—-3—-3—-3—-3—-3--3—-3----|
G|-0-----0-------0---0—-0—-0-|-2—-2—-2—-2—-2—-2—-2—-2----|
D|-0-----0-------0---0—-0—-0-|-0--0--0--0--0--0--0--0----|
A|-x-----x-------x---x—-x—-x-|---------------------------|
E|-3-----3-------3---3—-3-—3-|---------------------------|


E|------—-—-—-—-—--—--—------|---------------------------|
B|-2—---2---—---2-—--2—------|-----2-----2-------2--2--2-|
G|-2—---2---—---2----2--—----|-----2-----2-------2--2--2-|
D|-2—---2---—---2----2-------|-----2-----2-------2--2--2-|
A|-0----0-------2----0-------|-----0-----0-------0--0--0-|
E|---------3b------------0---|-3b------------------------|


I'm  gonna  get  me.            Get  me  out  of  here
E|-3-----3-------3---3-—3—-3-|-2—-2—-2—-2—-2—-2—-2—-2----|
B|-3-----3-------3---3—-3—-3-|-3—-3—-3—-3—-3—-3--3—-3----|
G|-0-----0-------0---0—-0—-0-|-2—-2—-2—-2—-2—-2—-2—-2----|
D|-0-----0-------0---0—-0—-0-|-0--0--0--0--0--0--0--0----|
A|-x-----x-------x---x—-x—-x-|---------------------------|
E|-3-----3-------3---3—-3-—3-|---------------------------|


E|------—-—-—-—-—--—--—------|---------------------------|
B|-2—---2---—---2-—--2—------|-----2-----2-------2--2--2-|
G|-2—---2---—---2----2--—----|-----2-----2-------2--2--2-|
D|-2—---2---—---2----2-------|-----2-----2-------2--2--2-|
A|-0----0-------2----0-------|-----0-----0-------0--0--0-|
E|---------3b------------0---|-3b------------------------|


I'm  gonna  get  me.            Get  me  out  of  here
E|-3-----3-------3---3-—3—-3-|-2—-2—-2—-2—-2—-2—-2—-2----|
B|-3-----3-------3---3—-3—-3-|-3—-3—-3—-3—-3—-3--3—-3----|
G|-0-----0-------0---0—-0—-0-|-2—-2—-2—-2—-2—-2—-2—-2----|
D|-0-----0-------0---0—-0—-0-|-0--0--0--0--0--0--0--0----|
A|-x-----x-------x---x—-x—-x-|---------------------------|
E|-3-----3-------3---3—-3-—3-|---------------------------|


E|------—-—-—-—-—--—--—------|-------------2-------------|
B|-2—---2---—---2-—--2—------|-----2-------3-----------2-|
G|-2—---2---—---2----2--—----|-----2-------2-----------2-|
D|-2—---2---—---2----2-------|-----2-------0-----------2-|
A|-0----0-------2----0-------|-----0-------------------0-|
E|---------3b------------0---|-3b------------------------|

========================================================================

5 Get What You Need

By Crazy

Intro              3 times (Riff A)
  -------------------------------------------------------------------------|
e I-----------------------I-----------------------I------------------------|I
B Io----------------------I----------------------oI------------------------|I
G I-----------------------I-----------------------I------------------------|I
D Io----------------------I----------------------oI------------------------|I
A I-11---13----13-11------I-----X--14-----13---x--I-11---13----13-11-------|I
E I-9----9-----9--9-------I-----X---9------9---x--I-9----9-----9--9--------|I
         C#

                                               2 Times
                          --------------------------------------------------|
e I-----------------------I-----9-9-9-9---9--9----I-------------------------|I
B I-----------------------I-----9-9-9-9---9--9----I-------------------------|I
G I-----------------------I-----10101010--10-10---I-------------------------|I
D I-----------------------I-----11111111--11-11---I--------4-----4----------|I
A I-----X--14-----13---x--I11---11111111--11-11---I--------4-----4-----0----|I
E I-----X---9------9---x--I-9---9-9-9-9---9--9----I--------2-----2-----0----|I
                               C#                         F#          E


       Verse : 1
       ('Riff a' played through once at each C#)

    C#                                     F#
    Call you on the telephone____
                              She's not there
    C#                                     F#
    Your always leaving me alone__
                              She don't care
        C#                                 F#
    I'm through with messing around_________
                              She's not there
    C#
    If you've got a lady friend I'm takin her down___
                              She don't care
                                           F#

          Pre-Chorus
e I-----------------------I-----------------------I-------------------------|I
B I----------------------4/6--------6---4---------I---------------------4/I-|
G I----------------------4/6--------6---4---------I---------------------4/I-|
D I----------------------4/6--------6---4---------I----4--------4-------4/I-|
A I----------------------2/4--------4---2---------I----4----0---4----0--2/I-|
E I-----------------------I-----------------------I----2----0---2----0- ----|I
       (Let's go)                                                   So come
                        C# B           C#             F#   E    F#   E  C#

e I-----------------------I-----------------------I------------------------|I
B I/6--------6---4--------I----------------------4/6--------6---4----------|I
G I/6--------6---4--------I----------------------4/6--------6---4----------|I
D I/6--------6---4--------I----4--------4--------4/6--------6---4----------|I
A I/4--------4---2--------I----4----0---4---0----2/4--------4---2----------|I
E I-----------------------I----2----0---2---0-----I------------------------|I
   on!                               Yeah!___come on_____
   B             C#            F#   E   F#  E    C# B           C#

e I-----------------------I-----------------------I----I  I----2---2---2---|I
B I----------------------4/6--------6---4---------I----I  I----2---2---2---|I
G I----------------------4/6--------6---4---------I-2--I  I----3---3---3---|I
D I----4--------4--------4/6--------6---4---------I--/-I  I----4---4---4---|I
A I----4----0---4---0----2/4--------4---2---------I---4I  I----4---4---4---|I
E I----2----0---2---0-----I-----------------------I----I  I----2---2---2---|I
                       Come on____________________________________
      F#   E    F#  E    C# B          C#       (Time Change)  F#

e I-4----4--4-4-4----4--4-I-4----4--4-4-4----4--4-I------------------------|I
B I-4----4--4-4-4----4--4-I-4----4--4-4-4----4--4-I------------------------|I
G I-5----5--5-5-5----5--5-I-5----5--5-5-5----5--5-I-6-(optional)-----------|I
D I-6----6--6-6-6----6--6-I-6----6--6-6-6----6--6-I-6----------------------|I
A I-6----6--6-6-6----6--6-I-6----6--6-6-6----6--6-I-4----------------------|I
E I-4----4--4-4-4----4--4-I-4----4--4-4-4----4--4-I------------------------|I
    G#  (Back to 4/4 Time)                          C#
                                                  I-----------------------I
                                                  I-14~~~~~~~~~~~~~~~~~~~~I
                                                  I------------------------|I
                                                  I----Guitar-2------------|I
                                                  I------------------------|I
                                                  I------------------------|I

                 Link

e I-----------------------I-----------------------I------------------------|I
B I-----------------------I-----------------------I------------------------|I
G I-----------------------I-----------------------I------------------------|I
D I-----------------------I-----------------------I------------------------|I
A I---Guitar-1------------I-----------------------I------------------------|I
E I-----------------------I-----------------------I------------------------|I
  C# Throughout Link
e I-----------------------I-----------------------I------------------------|I
B I~~~~~~~~~~~~-----------I-----------------------I------------------------|I
G I-----------------------I-----------------------I------------------------|I
D I-----------------------I-----------------------I------------------------|I
A I---Guitar-2------------I-----------------------I------------------------|I
E I-----------------------I-----------------------I------------------------|I

e I-----------------------I-----------------------I------------------------|I
B I-----------------------I-----------------------I------------------------|I
G I-----------------------I-----------------------I------------------------|I
D I-----------------------I----6---------4--------I-------6--------4--4----|I
A I-----Dirty Guitar------I-4--------4------6-----I--4---------4-----------|I
E I-----------------------I--------------------7--I---------------------7--|I

e I-----------------------I-----------------------I------------------------|I
B I----(Guitar 1)---------I-----------------------I------------------------|I
G I-----------------------I-----------------------I------------------------|I
D I-----------------------I-----------------------I------------------------|I
A I--4--4--2--4-----2-----I-----------------------I--4--4--2--4-----2------|I
E I---------------------0-I---2--2--0--2----0---0-I---------------------0--|I
     C#
e I-----------------------I-----------------------I------------------------|I
B I----(Guitar 2)---------I-----------------------I------------------------|I
G I-----------------------I-----------------------I-6--6--6 -6--6--6--6--6-|I
D I--6--6--6--6--6--6--6--I-6--6--6--6--6--6--6--6I-6--6--6--6--6--6--6--6-|I
A I--4--4--4--4 -4--4--4--I-4--4--4--4--4--4--4--4I-4--4--4--4--4--4--4--4-|I
E I-----------------------I-----------------------I------------------------|I
    Palm Mute                           Less Palm Mute
e I-----------------------I-----------------------I------------------------|I
B I---(Dirty Guitar)------I-----------------------I------------------------|I
G I-----------------------I-----------------------I---------4--------------|I
D I--6-----4--------------I----6-----4------------I--6-----------------4---|I
A I------4-------4------7-I-4------4----4-----4---I------4--------4--------|I
E I-----------------------I-----------------------I------------------------|I

                            Chorus     Repeat guitar 2 riff below throughout
                          -------------------------------------------------|
e I-----------------------I-----------------------I------------------------|I
B I-----------------------I-----------------------I------------------------|I
G I-----------------------I-----------------------I------------------------|I
D I-----------------------I-----------------------I------------------------|I
A I-----------------------I-----------------------I------------------------|I
E I-2--2--0--2------------I-----------------------I------------------------|I
               You're gonna get what you need___ (Gonna get what you need)
e I-----------------------I-----------------------I------------------------|I
B I-----------------------I-----------------------I------------------------|I
G I-6--6--6--6------------IO--6--6--4--6------4---I-------------------4----|OI
D I-6--6--6--6------------I---6--6--2--6------4---I-4--4-----4--2-----4----|I
A I-4--4--4--4------------IO--4--4--2--4------2---I-2--2-----2--2-----2----|OI
E I-----------------------I---------------------0-I-2--2--0--2--0----------|I

e I-----------------------I-----------------------I------------------------|I
B I-----------------------I-----------------------I------------------------|I
G I-----------------------I-----------------------I------------------------|I
D I-----6-----------------I-----------------------I------------------------|I
A I--4--------4-----------I-----------------------I------------------------|I
E I-----------------------I-----------------------I------------------------|I

                        Chorus Chords
        C#                     B     C#   B    F#              E   B
        You're gonna get what you need
                                        Gonna get what you need
         C#                     B     C#   B    F#              E   B
        You're gonna get what you need
                                        Gonna get what you need
         C#                     B     C#   B    F#              E   B
         Come on and get what you need
                                        Gonna get what you need
         C#                     B     C#   B    F#               G#           C#
        Alright and get what you need
                                        Gonna get what you need_______________

                       Verse 2
       N.C.
       Now I'm in a rocking band
                            She's not there

       No one has to hold my hand


        (verse 2 cont'd)
e I-----------------------I-----------------------I------------------------|I
B I-----------------------I-----------------------I------------------------|I
G I-----------------------I-----------------------I------------------------|I
D I-----------------------I-----------------------I------------------------|I
A I-11---13----13-11------I-----X--14-----13---x--I-11---13----13-11-------|I
E I-9----9-----9--9-------I-----X---9------9---x--I-9----9-----9--9--------|I
    Words start getting around (Shes not there)     If you've got a lady
    C#                                F#            C#

e I-----------------------I-----------------------I------------------------|I
B I-----------------------I-----------------------I------------------------|I
G I-----------------------I-----------------------I------------------------|I
D I-----------------------I-------{Back to}-------I------------------------|I
A I-----X--14-----13---x--I------{Pre Chorus}-----I------------------------|I
E I-----X---9------9---x--I-----------------------I------------------------|I
   friend i'll take her to town
                                 (B)

           SOLO LINK

e I-----------------------I-----------------------I------------------------|I
B I-----------------------I-----------------------I------------------------|I
G IO----------------------I-----------------------I------------------------|I
D I--6--6--8p6--6-----6---I--6--6--8p6--6-----6---I--6--6--8p6--6----------|I
A IO-4--4--4----4-----4---I--4--4--4----4-----4---I--4--4--4----4----------|I
E I-----------------------I-----------------------I-----------------0-1-2--|I
     C#                   (play twice)

e I------------------------|I
B I------------------------|I
G I------------------------|OI
D I-----2-----2---4---6----|I
A I-----0-----0---2---4----|OI
E I--4---------------------|I
             A    B   C#


              SOLO
e I-------------------9---I--9------9--9-------9--I--9------9--9-------9---|I
B I-------------------9---I--9------9--9-------9--I--9------9--9-------9---|I
G I-----------------------I-----11^(13)--11^(13)--I-----11^(13)--11^(13)---|I
D I-----------------------I-----------------------I------------------------|I
A I-----------------------I-----------------------I------------------------|I
E I-----------------------I-----------------------I------------------------|I
     YEAH!           C#
e I--9------9--9-------9--I--9----9--9-------9-12^I--9----9----------12^---|I
B I--9------9--9-------9--I--9----9--9-------9-11^I--9----9----------11^---|I
G I-----11^(13)--11^(13)--I---11^(13)--11^(13)----I---11-------0---0-------|I
D I-----------------------I-----------------------I------------------------|I
A I-----------------------I-----------------------I------------------------|I
E I-----------------------I-----------------------I------------------------|I
                                     A      B   C#
e I--9----9----------12^--I--9----9----------12^--I--9--9--12^------9-12---|-I
B I--9----9----------11^--I--9----9----------11^--I--9--9--11^------9-11---|-I
G I---11-------0---0------I---11-------0---0------I------------------------|I
D I-----------------------I-----------------------I------------------------|I
A I-----------------------I-----------------------I------------------------|I
E I-----------------------I-----------------------I------------------------|I

e I-9--12^-----9---9--14^-I---14--12--14--14^--12-I14^-12------------------|I
B I-9--11^-----9---9------I-----------------------I- ----14--12-14-12------|I
G I-----------------------I-----------------------I-----------------13/11--|I
D I-----------------------I-----------------------I------------------------|I
A I-----------------------I-----------------------I------------------------|I
E I-----------------------I-----------------------I------------------------|I
               A    B  C#
e I-----------------------I-----------------------I------------------------|I
B I-----------------------I-----------------11--9-I-9^-----------------9---|I
G I--9--11-11^-11--9-11-9-I-11^-11-9--------11--9-I-9^-----------------9---|I
D I-----------------------I----------11-9-11--11--I----11--9--11----11-----|I
A I-----------------------I-----------------------I---------------9--------|I
E I-----------------------I-----------------------I------------------------|I
                                       A     B C#
e I-----------------------I--------------9--------I------------------------|I
B I-9^----------11-----9--I-9^--9-----9--9-----9--I-9^--9----9---9--11--9--|I
G I-9^----------11-----9--I-9^--9-----9--------9--I-9^--9----9---9--11--9--|I
D I----11--9--11---11-----I--------11--------11---I-------11---------------|I
A I-----------------------I-----------------------I------------------------|I
E I-----------------------I-----------------------I------------------------|I
             (Hold long bend)                                 A      B  C#
e I------------------------|I
B I-9----------------------|I
G I-9---------9^^^^^^^^^---|I
D I------------------------|I
A I------------------------|I
E I------------------------|I

                           Chorus Chords
        C#                     B     C#   B    F#              E   B
        You're gonna get what you need
                                        Gonna get what you need
         C#                     B     C#   B    F#              E   B
        You're gonna get what you need
                                        Gonna get what you need
         C#                     B     C#   B    F#              E   B
         Come on and get what you need
                                        Gonna get what you need
         C#                     B     C#   B    F#               G#  (G# for 6 bars)
        Alright and get what you need
                                        Gonna get what you need_______________

      C#             EM         FEEDBACK
e I--0-----------------0----I-/----------------------I------------------------|I
B I--0-6------6\-------0----I--/---------------------I------------------------|I
G I--0-6------6\-------0----I-----//-----------------I------------------------|I
D I--0-6------6\-------2----I---------//-------------I------------------------|I
A I--0-4------4\-------2----I------------/-----------I------------------------|I
E I--0-----------------0----I--------------/---------I------------------------|I
    (after 6 bar G#)

SONG STRUCTURE:

INTRO
VERSE
PRECHORUS
LINK
CHORUS
VERSE
PRECHORUS
LINK
CHORUS
SOLOLINK
SOLO
CHORUS
G# OUTRO

| /  slide up
| \  slide down
| h  hammer-on
| p  pull-off
| ~  vibrato
| +  harmonic
| x  Mute note
 4/4 Four beats in 1 bar
 2/4 Two beats in 1 bar

===============================================================================

6 Last Chance

By landon427

 Intro:

 Gtr.1
|-------------------|
|-------------------|
|-11-11-11-11-11----| x3
|-9--9--9--9--9-----|
|-7--7--7--7--7-----|
|-------------------|

 Gtr.1
|------------------------|------------------|-----------------|
|------------------------|------------------|-----------------|
|-11-11-11-11-11-11-11p9-|-9----------------|-9\--------------|
|-9--9--9--9--9--9--9----|-9----------------|-9\--------------|
|-7--7--7--7--7--7--7----|-7----------------|-7\--------------|
|------------------------|------------------|-----------------|
|Gtr.2
|------------------------|------------------|-----------------|
|------------------------|------------------|-----------------|
|------------------------|------------------|-----------------|
|------------------------|------------------|---7-------------|
|------------------------|-2--5-7-5-7-5p2-2-|-2-5-7-5-7-5p2-2-|
|------------------------|-0--3-5-3-5-3p0-0-|-0---5-3-5-3p0-0-|

(Gtr.2 repeats its riff)

 Verse:
                    __________________  _____________________
 Gtr.2              |1.                 |2.
|------------------|------------------||---------------------|
|------------------|-----------------o||---------------------|
|------------------|------------------||---------------------|
|------------------|---7--------------||---7-----------------|
|-2--5-7-5-7-5p2---|-2-5-7-5-7-5p2---o||-2-5-7-5-7-7---------|
|-0--3-5-3-5-3p0---|-0---5-3-5-3p0----||-0---5-3-5-5---------|
|Gtr.1
|------------------|------------------||---------------------|
|------------------|------------------||---------------------|
|------------------|------------------||---------------------|
|------------------|------------------||---------------------|
|------------------|------------------||---------7-7---------|
|------------------|------------------||---------5-5---------|

 Chorus:
                                      _____________________
 Gtrs.1 & 2                           |1.
|-----------------|------------------|---------------------|
|-----------------|o-----------------|--------------------o|
|-----------------|------------------|---------------------|
|-----------------|------------------|---------------------|
|-9-9-7-9--9-9--9-|o-9-9-7-9--9-9--9-|-7-7-5-7--5-7-5-7-7-o|
|-7-7-5-7--7-7--7-|--7-7-5-7--7-7--7-|-5-5-3-5--3-5-3-0-5--|
 ______________________
 |2.
|----------------------|
|----------------------|
|----------------------|
|----------7-----------|
|-7-7-5-7--5-7-5-7-5p2-|
|-5-5-3-5----5-3-5-3p0-|


 Solo/Bridge:
 Gtr.1
|-----------|--------------------|
|-----------|-------------------o|
|-----------|--------------------|
|-----------|--------------------|
|-9-9--9----|-9-9--9------------o|
|-7-7--7----|-7-7--7-------------|
|Gtr.2
|--------7--|--------------------|
|--------7--|-------------------o|
|-----------|------9-(9)b11r9p7--|
|-----------|--------------------|
|-----------|-------------------o|
|-----------|--------------------|

 Ending:

 Gtr.1
|-----------------|--------------------|-------------------|
|-----------------|--------------------|-------------------|
|-----------------|--------------------|-------------------|
|-----------------|--------------------|----------------9--|
|-9-9-7-9--9-9--9-|-7-7-5-7--5-7-5-7-7-|-9-9-7-9--9--9--9--|
|-7-7-5-7--7-7--7-|-5-5-3-5--3-5-3-0-5-|-7-7-5-7--7--7--7--|
|Gtr.2
|-----------------|--------------------|-------------------|
|-----------------|--------------------|----------------12-|
|-----------------|--------------------|----------------11-|
|-----------------|--------------------|----------------9--|
|-9-9-7-9--9-9--9-|-7-7-5-7--5-7-5-7-7-|-9-9-7-9--9--9-----|
|-7-7-5-7--7-7--7-|-5-5-3-5--3-5-3-0-5-|-7-7-5-7--7--7-----|

==========================================================================

7 Lazy Gun

by landon (Unregistered)


Song: "Lazy Gun"
Band: Jet
Album: Get Born

Intro / Verse
Guitar 1:
e|--------------|----------------------|
B|--------------|----------------------|
G|-4/6-X--------|-4/7-77777777/8888888-|
D|-5/7-X--------|-5/8-88888888/9999999-|
A|-5/7-X--------|-5/8-88888888/9999999-|
E|-3/5-X-----X2-|-3/6-55555555/7777777-|
Guitar 2:
e|-------12-----|-------12--------15---|
B---X--X-14-----|-----X-14------X-17---|
G|--14-X-14-----|--14-X-14---17-X-17---|
D|--14-X-14-----|--14-X-14---17-X-17---|
A|--12-X-12-----|--12-X-12---15-X-15---|
E|-----x--------|-----X---------X------|

Chorus:
   D               B               A               G
e|-----2-------2-------2-------2-------2-------2-------2-------2---|
B|---3---3---3---3—--3---3---3---3---3---3---3---3---3---3---3---3-|
G|-----------------------------------------------------------------|
D|-0-------0-------------------------------------------------------|
A|-----------------2-------2-------0-------0-----------------------|
E|-------------------------------------------------3-------3-------| X2

===========================================================================

8 Look What You've Done

by Chang-Hwan Kim

Standart tuning

Am/G  C/B

-0-----0-|
-1-----1-|
-2-----0-|
-0-----0-|
-0-----2-|
-3-----0-|

[Verse 1]

C                     G
Take my photo off the wall

                 Am      Am/G         F
If it just won't sing for you

C                               G
'Cause all that's left has gone away

                    Am        Am/G                   D
And there's nothing there for you to prove


[Chorus 1]

F                    G
Oh, look what you've done

              C    C/B    Am    Am/G
You've made a fool of everyone

F                            G
Oh well, it seems likes such fun

          C         C/B      Am   Am/G   D
Until you lose what you had won         hoo~

[Verse 2]

C                        G
Give me back my point of view

                    Am        Am/G         F
'Cause I just can't think for you

C                      G
I can hardly hear you say

                  Am   Am/G   D
What should I do, well you choose

[Chorus 2]

F                    G
Oh, look what you've done

              C    C/B    Am    Am/G
You've made a fool of everyone

F                            G
Oh well, it seems likes such fun

          C         C/B      Am   Am/G
Until you lose what you had won

F                    G
Oh, look what you've done you've made a

   G#  A#      F
  fool of everyone

   G#  A#      F
A fool of everyone

   G#  A#      C
A fool of everyone


[Verse 3]

C                     G
Take my photo off the wall

                 Am      Am/G         F
If it just won't sing for you

C                               G
'Cause all that's left has gone away

                    Am        Am/G                   D
And there's nothing there for you to do

=========================================================================

9 Move On

By sompan

NTRO:
           (G)                   (C)
E       |---3--------------------|--0--0--0-3-3-----------|
B       |---0--------------------|--1--1--1-1-1-----------|
G       |---0--0-0--0h2p0----0---|--0--0--0-0-0-----------|
D       |---0----0--------0h2----|--2--2------2--0h2h0----|
A       |---2----2---------------|--3--3------3-----------|
E       |---3--------------------|------------------------|

Repeat twice!


Verse: (Just strum the chords)
Lyrics (With chords):


        (G)                       (C)                        (G)
Well I've been thinking 'bout the future
                 (C)
Too young to pretend
          (G)                      (C)                       (G)
It's such a waste to always look behind you
                           (C)
Should be lookning strait ahead
(D)                       (C)                                (Am)
Yeah... I'm gonna have to move on
                 (C)
Before we meet again
(G)          (D)
Yeah... It's hard
            (C)
If you had've only seen

(Second guitar comes in and plays a SOLO :P First guitar plays INTRO twice! )
        (G)                             (C)
E       |-------------------------------|------------------------------|
B       |----------10--12---12b---------|---8--10--12-------15b-15-----|
G       |----9/12----------------9---7b-|---9--11--12--9---------------|
D       |-------------------------------|--------------10--------------|
A       |-------------------------------|------------------------------|
E       |-------------------------------|------------------------------|


Verse: (Just strum the chords, The second guitar plays some backup solo! Fun!)
Lyrics (With chords):
           (G)                  (C)                           (G)
Ten thirty four Flinders Street station
                     (C)
I'm looking down the tracks
  (G)                      (C)                                (G)
Uniformed man asking am I paid up
                  (C)
Why would I wanna beeee there?
(D)                       (C)                                 (Am)
Yeah... I'm gonna have to move on
                 (C)
Before we meet again
(G)          (D)
Yeah... It's hard
            (C)
If you had only seen
(G)      (D)
Take... control
          (C)
Don't be afraid of me

(Harmonica comes in)

                        G
Cause every once in a while
                                        (C)
You think you proud if you're gonna
                                        (G)
get yourself together
                           (C)
You'll be happy just to be alive
          (G)
And just because
                   (C)
ya'just don't feel like
                                        (G)
comming home
                            (C)
Don't mean that you'll never arrive

(D)                       (C)                                (Am)
Yeah... I'm gonna have to move on
                 (C)
Before we meet again
(G)          (D)
Yeah... It's Hard
            (C)
If you had only seen
(G)      (D)
Take... control
          (C)                                                 (G)
Don't be afraid of me

-----------------------------------

The second guitar plays background solo during the rest of the song.

===========================================================================

10 Radio Song

by michael withrow-unregistered


C
Take a look at what i took

F
A leaf out of everybody's book

C            Cmaj7     F
we see what you can't see

F                          Dm
I'm caught in a trap of my own

Dm             G
Like everybody i know

C                           Gm      C  Gm    F
This wont be played on your radio, tonight

C                           Gm      C  Gm    F
This wont be played on your radio, tonight

Verse 2:
Do you all know
Of the emperor's clothes
Walking down an empty road
We see what you can't see
That's not how I wanna be
Anyhow, everytime, the same dream

Chorus

Musical bridge bit: Am Dm G C
                    Am Dm G C

                                    Fm
This wont be played on your radio, show

Chorus

Na Na Na....with chorus chords

===========================================================================

11 Rollover D.J.

by landon-unregistered

Intro (0:00)
  C  D     D     C  D     C    C     G  G
e------------------------------------------|
B------------------------------------12-12-|
G-9--11----11----9--11----9----9-----12-12-|
D-10-12----12----10-12----10---10----12-12-|
A-10-12----12----10-12----10---10----10-10-|
E-8--10----10----8--10----8----8-----------|
  C  D     D     C  D     C     C     G G
e-----------------------------------------|
B-----------------------------------------|
G-9--11----11----9--11----9-----9-----4-4-|
D-10-12----12----10-12----10----10----5-5-|
A-10-12----12----10-12----10----10----5-5-|
E-8--10----10----8--10----8-----8-----3-3-|

Verse (0:15, 1:12)
  ...Rhymes goin' 'round in my head...
  ...Know that you think you're a star...
     D5                      G/B  Csus2
e-------------------------------------------|
B---------------3---------3-------3---------|
G-2----4--2-----2---------0-------0---------|
D-0----0--3--4--0---------0-------X----X--X-|
A--------------------2----2----3--3----X--X-|
E-------------------------------------------| (X 2)
     D5                      G/B  Csus2      A5
e----------------------------------------------------------|
B---------------3---------3-------3------------------------|
G-2----4--2-----2---------0-------0-----------2------------|
D-0----0--3--4--0---------0-------X-----------2------------|
A--------------------2----2----3--3----X------0------0-0-0-|
E-----------------------------------------0----------------|
Chorus (0:43, 1:27, 2:27)
  Hey    Roll over...
  D                  C                  F                  G
e-2----2----2-2-2----0----0----0-0-0-----------------------3----3----3-3-3-|
B-3----3----3-2-3----1----1----1-1-1-----------------------3----3----3-3-3-|
G-2----2----2-3-2----0----0----0-0-0----2----2----2-2-2----0----0----0-0-0-|
D-0----0----0-0-0----2----2----2-2-2----3----3----3-3-3----0----0----0-0-0-|
A--------------------3----3----3-3-3----3----3----3-3-3----2----2----2-2-2-|
E---------------------------------------1----1----1-1-1----3----3----3-3-3-|
                                                                        (X 3)
Bridge (2:03)
e------------------------------------------|
B------------------------------------------|
G------------------------------------------|
D------------------------------------------|
A-12----14----12-14----10---12-12-10-10-12-|
E-12----12----12-12----8----8--8--8--8--8--|

e-------------------------------------------------|
B-------------------------------------------------|
G-------------------------------------------------|
D-12----14----12-14----12----12--14----15----14-0-|
A-10----10----10-10----10----10--10-10-10-10-10-0-|
E-------------------------------------------------|

Outro (3:03)
   C  D     D     C  D     C     C     G  G
e-------------------------------------------|
B-------------------------------------12-12-|
G-9--11----11----9--11----9-----9-----12-12-|
D-10-12----12----10-12----10----10----12-12-|
A-10-12----12----10-12----10----10----10-10-|
E-8--10----10----8--10----8-----8-----------|
  C  D     D     C  D     C     C     A
e---------------------------------------5-|
B---------------------------------------5-|
G-9--11----11----9--11----9-----9-----6-6-|
D-10-12----12----10-12----10----10----7-7-|
A-10-12----12----10-12----10----10----7-7-|
E-8--10----10----8--10----8-----8-----5-5-|

Well that about it... I'm sure it won't hurt to look up the lyrics on your own.  The
goes......

Intro (X 2)
Verse 1
Chorus
Intro (Yes, again, but only once this time)
Verse 2
Chorus
Bridge
Solo (Which I have still yet to figure out)
Chorus
Outro

==========================================================================

12 Take It Or Leave It

by eejit

Intro
guitar 1
e-----------|
B-----------|
G-----------|            10x
D-----------|
A-7-7-7-7-5-|
E-5-5-5-5-3-|

after 3x guitar 2 comes in with
e-5-5-3-5-|
B-5-5-3-5-|
G-6-6-4-6-|
D-7-7-5-7-|
A-7-7-5-7-|
E-5-5-3-5-|

Verse (swift downstrokes at first)
both guitars
e-5-5-5-5-5-5-5-5-5-5-5-5-|     e--------------------------------|
B-5-5-5-5-5-5-5-5-5-5-5-5-|     B-----5---5-5-7-5-7b-7-5-7-5-----|
G-6-6-6-6-6-6-6-6-6-6-6-6-|     G-6-6-5-6-5-5-7-5-7b-7-5-7-5-----|
D-7-7-7-7-7-7-7-7-7-7-7-7-|(2X) D-7-7---7--------------------6-6-|
A-7-7-7-7-7-7-7-7-7-7-7-7-|     A----------------------------7-7-|
E-5-5-5-5-5-5-5-5-5-5-5-5-|     E--------------------------------|
after 1st time just play the first part once

all of the above 3x then
e-10-10-10-10-10-10-10-10-10-10-10-10-------------------------------------|
B-10-10-10-10-10-10-10-10-10-10-10-10--------10----10-12-10-12b-12-10-12b-|
G-11-11-11-11-11-11-11-11-11-11-11-11--11-11-10-11-10-12-10-12b-12-10-12b-|
D-12-12-12-12-12-12-12-12-12-12-12-12--12-12----12------------------------|
A-12-12-12-12-12-12-12-12-12-12-12-12-------------------------------------|
E-10-10-10-10-10-10-10-10-10-10-10-10-------------------------------------|

then back to
e-5-5-5-5-5-5-5-5-5-5-5-5-----------------------------|
B-5-5-5-5-5-5-5-5-5-5-5-5------5---5-7-5-7b-7-5-7-5---|
G-6-6-6-6-6-6-6-6-6-6-6-6--6-6-5-6-5-7-5-7b-7-5-7-5-6-|
D-7-7-7-7-7-7-7-7-7-7-7-7--7-7---7------------------7-|
A-7-7-7-7-7-7-7-7-7-7-7-7-----------------------------|
E-5-5-5-5-5-5-5-5-5-5-5-5-----------------------------|

Chorus (I guess) fast downstrokes all 'round
e-7-7-7-7-7-7-7-7-7-7-7-7-7-7-7-7-|
B-9-9-9-9-9-9-9-9-9-9-9-9-9-9-9-9-|
G-9-9-9-9-9-9-9-9-9-9-9-9-9-9-9-9-|
D-9-9-9-9-9-9-9-9-9-9-9-9-9-9-9-9-|
A-7-7-7-7-7-7-7-7-7-7-7-7-7-7-7-7-|
E-7-7-7-7-7-7-7-7-7-7-7-7-7-7-7-7-|

e-10-10-10-10-10-10-10-10-10-10-10-10-10-10-10-10-|
B-12-12-12-12-12-12-12-12-12-12-12-12-12-12-12-12-|
G-12-12-12-12-12-12-12-12-12-12-12-12-12-12-12-12-|
D-12-12-12-12-12-12-12-12-12-12-12-12-12-12-12-12-|
A-10-10-10-10-10-10-10-10-10-10-10-10-10-10-10-10-|
E-10-10-10-10-10-10-10-10-10-10-10-10-10-10-10-10-|

Intro 4x then

e------------------------------|
B-----5---5-7-5-7b-7-5-7-5-----|
G-6-6-5-6-5-7-5-7b-7-5-7-5-6-6-|
D-7-7---7------------------7-7-|
A------------------------------|
E------------------------------|

Verse
Chorus
Intro 4x

Solo (It goes so fast I'm not completely sure this is right)
guitar 2
e---------------------------|
B-----5-------------5-----5-|
G-6-6-5-6-----5-6-6-5-6---5-|
D-7-7---7-5-7---7-7---7-5---|
A---------------------------|
E---------------------------|

after this bit guitar 1 plays this chord quickly until the end
e-5-|
B-5-|
G-6-|
D-7-|
A-7-|
E-5-|

meanwhile guitar 2 continues like this
e-------5-------5-------5-------5---------------------------------------|
B-5-5-5---5-5-5---5-5-5---5-5-5---5---------------11-11-11-9-11-11-11-9-|
G-----------------------------------7-5-7b-5-7b-5-11-11-11-9-11-11-11-9-|
D-----------------------------------------------------------------------|
A-----------------------------------------------------------------------|
E-----------------------------------------------------------------------|

e--------------------------5-5-5-5-5-5-5-5-5-5-5-5-5-5-----------|
B-14-14-14-12-14-14-14-12--5-5-5-5-5-5-5-5-5-5-5-5-5-5-----------|
G-14-14-14-12-14-14-14-12--6-6-6-6-6-6-6-6-6-6-6-6-6-6-----------|          until the end
D--------------------------7-7-7-7-7-7-7-7-7-7-7-7-7-7-----------|
A--------------------------7-7-7-7-7-7-7-7-7-7-7-7-7-7-----------|
E--------------------------5-5-5-5-5-5-5-5-5-5-5-5-5-5-----------|.........

==========================================================================

13 Timothy

by milo altero

A      G             D          A
Timothy, I took your place
A      G                   D        A
Timothy, cause it's such a waste
Bm           G
Timothy, we found your spaceship
Bm                G                    D             A
Timothy, it's the farthest you've ever flown

C     A
Never used your head
C           A                     Em
To find out what this whole thing meant

  D                A
It's not what it seems
   Em
But it is
        D             A          Em
Timothy where have you been?
        D             A
Timothy where have you been?

A      G               D        A
Timothy, where did you go?
A      G             D          A
Timothy, the boy can throw
Bm          G
Timothy, we found your spaceship
Bm               G                    D             A
Timothy, did it hurt when you hit the ground

C        A
Never used your legs
C         A                      Em
To walk 'round in this whole big mess

     D           A
It's not what it seems
     Em
But it is
        D              A       Em
Timothy where have you been
       D          A
She cried in the kitchen
      Em
To let you go
        D              A
Timothy where have you been

            Em
Missed your photo
            Em
Missed your birthday too
            Em
Missed your photo

      D          A
It's not what is seems
       Em
But it is
        D              A        Em
Timothy where have you been

    D            A
She cried in the kitchen
     Em
To let you go
        D              A
Timothy where have you been

            Em
Missed your photo
            Em
Missed your birthday too
            Em
Missed your photo

===========================================================================

wow... there goes 30 minutes of my life... down the drain...oh well

enjoy
Добавлено: 07.10.2013
Другие материалы по этой песне:
  • Аккорды и текст

Страница создана 07.10.2013
http://primanota.ru/jet/get-born-chords.htm
Привет, Гость.
Предлагаем пройти революционный курс по гитаре.
Подарок от PrimaNota.Ru, забирай!