PrimaNota.ru - самый крупный в мире бесплатный архив песенных текстов, аккордов, табулатур и нот


Jerry Goldsmith - Total Recall - The Dream - таба, видео

Регистрация Запомнить меня
Войти через:  Facebook Google Twitter Vk Yandex Mail.ru

Jerry Goldsmith - Total Recall - The Dream - таба, видео

Печатать
Просмотров: 163
Jerry Goldsmith
The Dream
Guitar Tab
Standard Tuning - EADGBE
Tabbed By Jonathan Mack


This Is The Main Theme From The Movie - Total Recall.
Its Played Throughout The Intro And Outro Of The Film.


Musically There Is So Much To This Song,With All
The Layers Of Instruments Overlapping And What Not.
So I Kept It Simple By Tabbing Out All The 
Main Parts. (Basically The Fun Bits!)



. Palm Mute
H Hold Note/Ring Out
h Hammer On
/ Slide Up
L Lower Volume
R Raise Volume
Z Volume At Zero (When Hitting Note)


In Order To Create The Proper Effect During Some Parts Of
The Song,You Will Have To Manually Lower The Volume
Knob On Your Guitar And Then Raise It.This Creates The
Fading In And Fading Out Effect Of The Violins And Other
Instruments.


Examples...

LR  =  Hit And Hold The Note,Lower The Volume,Then Raise.


ZRL =  Hit And Hold The Note While Volume Is Completely Down.
       Raise Volume Still Holding The Note,Then Lower.



Intro


Rhythm Guitar
0:08
|--------------|-----------------|-----------------|-----------------|
|--------------|-----------------|-----------------|-----------------|
|--------------|-----------------|-----------------|-----------------|
|--------------|-----------------|-----------------|-----------------| x1
|--------------|-----------------|-----------------|-----------------|
|3--3--3-33-3-3|3-3-3-3-3--33-3-3|3-3-3-3-3--33-3-3|3-3-3-3-3--33-3-3|
 .  .  . .. . . . . . . .  .. . . . . . . .  .. . . . . . . .  .. . .

0:24
|-----------------|
|-----------------|
|-----------------|
|-----------------| x4
|-----------------|
|3-3-3-3-3--33-3-3|
 . . . . .  .. . .


Lead Guitar
0:16                                  0:38
|-------------------------------------|--------|
|-------------------------------------|--------|
|-------------------------------10H---|10------|
|------5H----7H----10H----8H----------|---12---| x1
|5H-----------------------------------|------10|
|-------------------------------------|--------|
    LR    LR    LR     LR    LR     LR



Verse One


Rhythm Guitar
0:39
|-----------------|-----------------|-----------------|-----------------|
|-----------------|-----------------|-----------------|-----------------|
|-----------------|-----------------|-----------------|-----------------|
|-----------------|-----------------|-----------------|-----------------| x1
|-----------------|-----------------|-----------------|-----------------|
|3-3-3-3-3--33-3-3|3-3-3-3-3--33-3-3|3-3-3-3-3--33-3-3|3-3-3-3-3--33-3-3|
 . . . . .  .. . . . . . . .  .. . . . . . . .  .. . . . . . . .  .. . .

0:55
|-----------------|-----------------|-----------------|-----------------|
|-----------------|-----------------|-----------------|-----------------|
|-----------------|-----------------|-----------------|-----------------|
|-----------------|-----------------|-----------------|-----------------| x1
|-----------------|-----------------|-----------------|-----------------|
|3-3-3-3-3--33-3-3|4-4-4-4-4--44-4-4|3-3-3-3-3--33-3-3|3-3-3-3-3--33-3-3|
 . . . . .  .. . . . . . . .  .. . . . . . . .  .. . . . . . . .  .. . .

1:11
|-----------------|-----------------|-----------------|-----------------|
|-----------------|-----------------|-----------------|-----------------|
|-----------------|-----------------|-----------------|-----------------|
|-----------------|-----------------|-----------------|-----------------| x1
|-----------------|-----------------|-----------------|-----------------|
|3-3-3-3-3--33-3-3|3-3-3-3-3--33-3-3|3-3-3-3-3--33-3-3|3-3-3-3-3--33-3-3|
 . . . . .  .. . . . . . . .  .. . . . . . . .  .. . . . . . . .  .. . .

1:27
|-----------------|-----------------|-----------------|
|-----------------|-----------------|-----------------|
|-----------------|-----------------|-----------------|
|-----------------|-----------------|-----------------| x1
|-----------------|-----------------|-----------------|
|3-3-3-3-3--33-3-3|4-4-4-4-4--44-4-4|3-3-3-3-3--33-3-3|
 . . . . .  .. . . . . . . .  .. . . . . . . .  .. . . 


Lead Guitar
0:39                           0:51
|----------------------8-------|-----------------6------9-8H--------------|
|8-10-11H---10-11H---8---11H---|10-8H---4-6-8H-----9H---------------------|
|------------------------------|------------------------------------------|
|------------------------------|------------------------------------------| x1
|------------------------------|------------------------------------------|
|------------------------------|------------------------------------------|

1:11                              1:23
|16-15-13H---12-13H------15-20H---|17-------------------13-11H---16-15H---|
|---------------------15----------|---15H---11-13-15H---------------------|
|---------------------------------|---------------------------------------|
|---------------------------------|---------------------------------------| x1
|---------------------------------|---------------------------------------|
|---------------------------------|---------------------------------------|



Break Down


Rhythm Guitar
1:39                       1:47
|--------------------------|----------------------|
|--------------------------|----------------------|
|------12--14-11--9-10-----|-----7--8--------7----|
|12-14-----------------12--|8-10------10--10---8--| x1
|--------------------------|----------------------|
|--------------------------|----------------------|

Lead Guitar
1:39                       1:47
|--------------------------|------------------------|
|--------------------------|---------------------8--|
|------12--14-11--9-10-----|-----7--8--------7------|
|12-14-----------------12--|8-10------10--10--------| x1
|--------------------------|------------------------|
|--------------------------|------------------------|
                                                 ZR



Verse Two


Lead Guitar
1:55                           2:07
|----------------------8-13H---|---15H------13-15H---18-16H-------16-20H-----------------------|
|8-10-11H---10-11H---8---------|15-------16-------------------14-------------------------------|
|------------------------------|---------------------------------------------------------------|
|------------------------------|---------------------------------------------------------------|x1
|------------------------------|---------------------------------------------------------------|
|------------------------------|---------------------------------------------------------------|

Lead Guitar
1:55                                                                   2:19
|------------------------------|------------------------------------------------------------8-8|
|------------------------------|---------------------------------------------------------------|
|------------------------------|---------------------------------------6--5--6--5--6--8-8-7----|
|------------------------------|---------------------------------------------------------------|x1
|------------------------------|---------------------------------------------------------------|
|------------------------------|---------------------------------------------------------------|


Bridge Section


Rhythm Guitar
2:27
|-------------------|
|----------4---7H---|
|------3-----3------|
|----5---6----------| x1
|--3----------------|
|3------------------|

2:37
|-----------------9H---| 
|9H---10H---12H--------|
|----------------------|
|----------------------| x1
|----------------------|
|----------------------|

2:58
|---------------------7-------------|------------|
|7-9-10H---9--10H---7---10H---9--7--|--5-7--8-/10|
|-----------------------------------|7-----------|
|-----------------------------------|------------| x1
|-----------------------------------|------------|
|-----------------------------------|------------|
             L z R


Lead Guitar
2:35    2:41   2:49   2:58             3:07
|14H----16H----17H----19--17--16-------|14-17H---24-22H---15H---|
|--------------------------------14H---|------------------------|
|--------------------------------------|------------------------|
|--------------------------------------|------------------------| x1
|--------------------------------------|------------------------|
|--------------------------------------|------------------------|
  Z  RL  Z  RL  Z  RL  Z R



Outro


Rhythm Guitar
    3:20                                 3:27
|-------------------|---------------9H---|--------|
|---------6--7/9H---|-------6-7-7/9------|-10H----|
|-------7-----------|---5h7--------------|--------|
|---5h7-------------|--------------------|--------| x1
|-------------------|--------------------|--------|
|-------------------|--------------------|--------|
                                              L R

Lead Guitar
    3:20                                 3:27
|-------------------|---------------9H---|9H------|
|---------6--7/9H---|-------6-7-7/9------|--------|
|-------7-----------|-----7--------------|--------|
|---5h7-------------|---7----------------|--------| x1
|-------------------|--------------------|--------|
|-------------------|--------------------|--------|
                                             L R
Добавлено: 28.04.2012
Другие материалы по этой песне:
  • Аккорды и текст

Страница создана 28.04.2012
http://primanota.ru/jerry-goldsmith/total-recall-the-dream-chords.htm
Привет, Гость.
Предлагаем пройти революционный курс по гитаре.
Подарок от PrimaNota.Ru, забирай!