PrimaNota.ru - самый крупный в мире бесплатный архив песенных текстов, аккордов, табулатур и нот


Jerry Goldsmith - Star Trek Voyager Main Title - таба, видео

Регистрация Запомнить меня
Войти через:  Facebook Google Twitter Vk Yandex Mail.ru

Jerry Goldsmith - Star Trek Voyager Main Title - таба, видео

Печатать
Просмотров: 239
From: JJ Baron 
Subject: g/goldsmith_jerry/star_trek_voyager_main_title.tab

STAR TREK: VOYAGER - MAIN TITLE
Music by Jerry Goldsmith
?1995 Paramount Pictures
*******************************************************************
Tabbed by Jason Baron - Apr. 26 1998

Just play through from start to end. There are
no clear chorus/verse/bridge segments.

As far as I can tell, I've tabbed it perfectly.
If you disagree, e-mail me: jjbaron@mailexcite.com
*******************************************************************

e--4------------9---------------4------9---8---4-------------------|
B--------2-------------------------2---------------2-2-------------|
G------------------------------------------------------------------|
D------------------------------------------------------------------|
A------------------------------------------------------------------|
E------------------------------------------------------------------|

e---------------2--------1-----------------------------------------|
B--2-------------------------2---2---4---4---2---2-----------------|
G------------------------------------------------------------------|
D--------4---------------------------------------------------------|
A------------------------------------------------------------------|
E------------------------------------------------------------------|

e------------------------------------------------------------------|
B---0--------2------------2-----------0----------------------------|
G----------------------3-----1-1------------------1----------------|
D---------4-----4-4----------------------1-1---------3-------------|
A------------------------------------------------------------------|
E------------------------------------------------------------------|

e---------------2--------1-------------------------------6-----2---|
B--2-------------------------2---2---4---4---2---------------------|
G------------------------------------------------------------------|
D--------4---------------------------------------------------------|
A------------------------------------------------------------------|
E------------------------------------------------------------------|

e------------------------------------------------------------------|
B--4--2----------2-------------------------------------------------|
G-------------------1-------------1--------------------------------|
D--------4-4---------------------------4---------------------------|
A-----------------------4--4---------------------------------------|
E------------------------------------------------------------------|

e-------------------------0--2-----2--3------2-----2--3-----3--4---|
B-------------------2--3--------0---------------0--------0---------|
G----------1--3--4-------------------------------------------------|
D--4---------------------------------------------------------------|
A------------------------------------------------------------------|
E------------------------------------------------------------------|

e----6---4-----------------------------2----1----------------------|
B--------------2---------2---------4------------2---2---4---4---2--|
G------------------------------------------------------------------|
D------------------------------4-----------------------------------|
A------------------------------------------------------------------|
E------------------------------------------------------------------|

e----6---2--------------------------------------4-2---1-------------|
B--------------4--2----------2----------------------------4---2-----|
G-------------------------------1-----------------------------------|
D--------------------4-4--------------------------------------------|
A-----------------------------------4--4----------------------------|
E-------------------------------------------------------------------|

e----------2---1----------------------------------------------------|
B--2---------------2------------------------------------------------|
G-------------------------------------------------------------------|
D------4---------------4--------------------------------------------|
A-------------------------------------------------------------------|
E-------------------------------------------------------------------|
Добавлено: 05.04.2012
Другие материалы по этой песне:
  • Аккорды и текст

Страница создана 05.04.2012
http://primanota.ru/jerry-goldsmith/star-trek-voyager-main-title-chords.htm
Привет, Гость.
Предлагаем пройти революционный курс по гитаре.
Подарок от PrimaNota.Ru, забирай!