PrimaNota.ru - самый крупный в мире бесплатный архив песенных текстов, аккордов, табулатур и нот


Jeff Healey - I Need To Be Loved - таба, видео

Регистрация Запомнить меня
Войти через:  Facebook Google Twitter Vk Yandex Mail.ru

Jeff Healey - I Need To Be Loved - таба, видео

Печатать
Просмотров: 140
Jeff Healey
I Need To Be Loved
Tuning: Standard
Transcribed by Soch Hean

Intro:
|----------------------------------------|
|----------------------------------------|
|------------4---4-------4----4----------|
|---6--4-----4h6-4-------4h6--6--6s8-8---|
|--------6-x-------6\--------------------|
|----------x-----------4-----------------| (x4)
PM|---|

(0:58)
|----------------------------------------------|
|------4b4.5-------------------7---------------|
|------4b4.5-----6-------4-6s8---8s6p4----4----|
|---4--------6------4=h6---------------6-------|
|-6--------------------------------------------|
|----------------------------------------------|

(1:07)
|-----------------------------------------------|
|-7b9--7b9~~--7p4-------------------------------|
|------------------6b8-6p4---6b8--4b4.5---------|
|--------------------------6------------6~------|
|-----------------------------------------------|
|-----------------------------------------------|

(1:15)
|----------------|
|------7---------|
|-6s8------------|
|----------------|
|----------------|
|----------------|

Guitar Solo: (1:46)
|-------4--7b9~--7\---7b9-7-4---4------------4-----------------|
|-4--4------------------------4---7-4--------------------------|
|-------------------------------------6b8~------6b8r-4---6-----|
|------------------------------------------------------6---6---|
|--------------------------------------------------------------|
|--------------------------------------------------------------|

|-----------------------------------------------------------------------|
|-------------------------12-14b16-12-14-14b16rp14-----------12-11b11.5-|
|-4b4.4---------------/13--------------------------13--13-13------------|
|-------6~--6-4---------------------------------------------------------|
|---------------6\------------------------------------------------------|
|-----------------------------------------------------------------------|

|----------------------------------------------------------------11-14--|
|----------------------------------------------------14-12-14b16--------|
|-13-11-13-11~\---6s4---6b8=--4----------11----11h13--------------------|
|---------------------6---------6-6~-/13----13--------------------------|
|-----------------------------------------------------------------------|
|-----------------------------------------------------------------------|

|-11-14b16~--14-11--------14-------14-----------------------------------|
|-------------------14b16----14b16----14b16r-14p12-14~--12h14p12-11-----|
|-------------------------------------------------------------------11--|
|-----------------------------------------------------------------------|
|-----------------------------------------------------------------------|
|-----------------------------------------------------------------------|

|---------------11-----------------14b16~~~~~~--11--------------|
|-----11-12=s14------------------------------------14p12-14b16--|
|-/13--------------13~-13p11------------------------------------|
|----------------------------13\--------------------------------|
|---------------------------------------------------------------|
|---------------------------------------------------------------|

|--------------------------------------------------------------|
|-14s12----12b12.5--12s9----------10b12---7h9~--7--------------|
|-------13---------------11-11b13-----------------8s6-4-6p4----|
|-----------------------------------------------------------6--|
|--------------------------------------------------------------|
|--------------------------------------------------------------|

|-----------------------------4-----7b9-4----------------------|
|--------------------------------4--------7--------------------|
|-6b8rp4----------------6b8=-----------------6=b8rp4-6~--------|
|--------6-6~--p4----------------------------------------------|
|-----------------6-6------------------------------------------|
|--------------------------------------------------------------|

(2:45)
|----------------------------4---------------------------------|
|-7b9--7~--7b9=------------------------------------------------|
|----------------6b8rp4-6b8--------4h6p4~~---------------------|
|------------------------------6~------------------------------|
|--------------------------------------------------------------|
|--------------------------------------------------------------|

(2:54)
|--------------------------------------------------------------|
|-10b12--10~--7----7h9~--7-------------------------------------|
|---------------8----------8--8s11s8--6b8rp4---4h6~------------|
|--------------------------------------------6-----------------|
|--------------------------------------------------------------|
|--------------------------------------------------------------|

Outro:
|-7b9--7b9-7--4---7--4h7p4--4-----------------------------------|
|---------------4-------------4---------------------------------|
|-------------------------------6b8--6-4--3h4p3~----------------|
|---------------------------------------------------------------|
|---------------------------------------------------------------|
|---------------------------------------------------------------|
Добавлено: 30.06.2012
Другие материалы по этой песне:
  • Аккорды и текст

Страница создана 30.06.2012
http://primanota.ru/jeff-healey/i-need-to-be-loved-chords.htm
Привет, Гость.
Предлагаем пройти революционный курс по гитаре.
Подарок от PrimaNota.Ru, забирай!