PrimaNota.ru - самый крупный в мире бесплатный архив песенных текстов, аккордов, табулатур и нот


Jeff Buckley - Lover Live - таба, видео

Регистрация Запомнить меня
Войти через:  Facebook Google Twitter Vk Yandex Mail.ru

Jeff Buckley - Lover Live - таба, видео

Печатать
Просмотров: 61
Transcribed by Ian Williams (godspank@hotmail.com)

Okay, this is the intro that Jeff does for Lover, You Should've
Come Over on the Live in Chicago DVD It's not exact, but it's
close enough that you shouldn't have to change anything unless
you're super anal. It's just the chords though, so watch the
video to get the nuances and whatnot down. Cheers.

Ian



|----0----0----0----0----0----3----0----0----0----0----|
|----10---10---5----7----5----5----3----3----0----3----|
|----11---12---6----7----5----5----4----4----0----3----|
|----0----0----0----0----0----0----5----4----2----2----|
|----0----0----x----x----x----x----5----0----4----x----|
|----x----x----x----x----x----x----x----x----0----2----|


|----3----2----3----2----3----x----x----x----x----ad---|
|----3----3----3----3----3----5----7----7----7----lib--|
|----0----0----0----2----0----4----7----6----7----a----|
|----0----0----0----0----0----3----7----5----7----fill-|
|----2----2----2----0----2----x----x----x----x---------|
|----3----x----x----x----3----4----5----6----7---------|


|----x----0----0----0-h2--------|
|----5----3----3----3-----------|
|----6----4----4----2-----verse-|
|----4----2----0----0-----------|
|----x----0----0----0-----------|
|----5----x----x----x-----------|

Email any corrections to godspank@hotmail.com
     
Добавлено: 11.11.2013
Другие материалы по этой песне:
  • Аккорды и текст

Страница создана 15.09.2013
http://primanota.ru/jeff-buckley/lover-live-chords.htm
Привет, Гость.
Предлагаем пройти революционный курс по гитаре.
Подарок от PrimaNota.Ru, забирай!