PrimaNota.ru - самый крупный в мире бесплатный архив песенных текстов, аккордов, табулатур и нот


Jeff Buckley - Lover Mystery White Boy - таба, видео

Регистрация Запомнить меня
Войти через:  Facebook Google Twitter Vk Yandex Mail.ru

Jeff Buckley - Lover Mystery White Boy - таба, видео

Печатать
Просмотров: 118
Уроки эстрадного вокала в Санкт-Петербурге
Lover, You Should've Come Over Live Intro
=========================================
Artist - Jeff Buckley
Albumn - Mystery White Boy

This tab is all my own work. I don't have the chords here, but if you 
are looking for them there is a great tab by some fellas that you 
can find on this site. There is another good tab for the intro to
the version on Live In Chicago.


Here is the intro

E|------------------------------------------------------------
B|---10--10----10-10-10-5-8-10-8-5-3----8-----15151515-17-15--
G|---11--11----11-12-11-6-9-11-9-6-4----9-----16161616-18-16--
D|--------------------------------------------^down beats-----
A|---------------------------------^into strums---------------
E|---------------------------------------------------^back to strums

E|---------------------------2----0^2---2p0h2-----------0^2---
B|---------------------10----2----3-3---3------1---3----3-3---
G|---------------------11----0----0^2---2---------------0^2---
D|---2--------7--------12----2----0-0---0--------2------0-0---
A|---2--------7--------------0-----------------3-2-2----------
E|---^full blow strums-----------------------------3----------

E|---2p0h2-0^2---2p0h2------------------------------------
B|---3-----3-3---3------1---------------------------------
G|---2-----0^2---2----------------------------------------
D|---0-----0-0---0---------2------------------------------
A|----------------------3--2------------------------------
E|----------------------^drums come in here---------------

And off into the verse (D,C with e note in it,Em)

Thats about it for the intro. There's probably a few errors.

Hope you have fun,

Hambo

hcruicks@sor.tas.edu.au (email suggestions)
     
Добавлено: 27.08.2013
Другие материалы по этой песне:
  • Аккорды и текст

Страница создана 27.08.2013
http://primanota.ru/jeff-buckley/lover-mystery-white-boy-chords.htm
Привет, Гость.
Предлагаем пройти революционный курс по гитаре.
Подарок от PrimaNota.Ru, забирай!