PrimaNota.ru - самый крупный в мире бесплатный архив песенных текстов, аккордов, табулатур и нот


Jeff Beck - Shes A Woman - бас-таба, видео

Регистрация Запомнить меня
Войти через:  Facebook Google Twitter Vk Yandex Mail.ru

Jeff Beck - Shes A Woman - бас-таба, видео

Печатать
Просмотров: 182
Уроки эстрадного вокала в Санкт-Петербурге
Авторы: John Lennon, Paul McCartney

			     She's A Woman- Jeff Beck
----------------------------------------------------------------------------

Tabbed By : Tim
e-mail: timsplit@hotmail.com

Taken from one of the greatest guitar albums of all time "Blow By Blow"
This is basically it, I'll welcome any corrections! :)

Tuning: Normal

Structure: (It's a bit long, but it will help)
Intro
Verse (12 bars)
Bridge
Verse (2bars)
Intro
Verse 
Bridge
Verse (2bars)
Intro
Verse (1 bar)
Pre verse
Verse (x2)
Bridge
Verse (2bars)
Intro
Pre verse (1st bit, X2)
Verse to end

Intro
G|---------------------------------------------------------------------------|
D|-----------2---------------------------------------------------------------|
A|-----5-3-2-----------------------------------------------------------------|
E|0--------------------------------------------------------------------------|

Verse (x12)

G|---------------------------------------------------------------------------|
D|---------------------------------------------------------------------------|
A|7 0---77-555-777-----------------------------------------------------------|
E|---------------------------------------------------------------------------|

Bridge (2bars)

G|---------------------------------------------------------------------------|
D|---------------------------------------------------------------------------|
A|5----3---------------------------------------------------------------------|
E|---------------------------------------------------------------------------|
(3rd fret on and of 4 then hold for a bar)

Pre-verse (Not sure what exactly to call it)

G|---------------------------------------------------------------------------|
D|---------------------------------------------------------------------------|
A|0---3---1---0----4----5----6----7------------------------------------------|
E|---------------------------------------------------------------------------|







| /  slide up
| \  slide down
| h  hammer-on
| p  pull-off
| ~  vibrato
| +  harmonic
| x  Mute note
Добавлено: 31.03.2012
Другие материалы по этой песне:

Страница создана 31.03.2012
http://primanota.ru/jeff-beck/shes-a-woman-chords.htm
Привет, Гость.
Предлагаем пройти революционный курс по гитаре.
Подарок от PrimaNota.Ru, забирай!