PrimaNota.ru - самый крупный в мире бесплатный архив песенных текстов, аккордов, табулатур и нот


Жан-Филипп Рамо - Minuetto I - таба, видео

Регистрация Запомнить меня
Войти через:  Facebook Google Twitter Vk Yandex Mail.ru

Жан-Филипп Рамо - Minuetto I - таба, видео

Печатать
Просмотров: 212
TAB EXPLANATION:
H = Hammer on or Pull off
/ = Slide
| = Beat

3/4 Time signature
Allegro Grazioso (I personally play it 115 - 130 BPM)


     |     |    |       |    |    |       |    |        |
E||--5--7--9----7----|-------0----5----|-------4h5h4----------|
B||------------------|-----------------|-------------7--5-----|
G||--6--7--9----7----|------------6----|-------4-----------7--|
D||------------------|-----------------|----------------6-----|
A||--0---------------|-------0---------|----------------------|
E||------------------|--4--------------|--0-------------------|


  |     |    |       |    |    |       |    |    |       |     |     |  
------------------|-----------------|--2----0----5----|-----4--2-----------|
--2--3--5---------|-------3----2----|--3----2---------|-----------5/-3--2--|
--2--4--6---------|--2----4----2----|-------2---------|--------------2-----|
--4---------------|--4---------4----|-----------------|--0-----------------|
-------------4----|--5----2---------|--5---------4----|--------------------|
------------------|-----------------|-----------------|--------------------|


1___________________| 2________________|
  |    |     |          |    |    |         |      |     |
--------------------||-----------------||---7--9---10----9-----|
--0-----------------||--0--------------||---9--10--12----10----|
--1----------------*||--1--------------||*---------------------|
--2-------0--------*||--2--------------||*---------------------|
-------------4--2---||-----------------||----------------------|
--------------------||-------0----5----||----------------------|


  |    |       |       |    |       |       |    |    | 
-------7h9h7---5----|-------4h5h4---2----|-------0---------|
--------------------|--------------------|------------0----|
-------7-------6----|-------4-------2----|-------1---------|
--------------------|--------------------|-----------------|
--------------------|--------------------|-----------------|
--0-----------------|--0-----------------|--0--------------|


  |     |     |        |     |     |        |     |     |    
-----------4--5-----|--------4--5--7--0--|--2/-5--4--2--------|
--4--5/-7--------4--|--5--7--------------|--2-----------5--4--|
--2-----------------|--4-----------------|--2-----------4-----|
--4-----------------|--6-----------------|--------------------|
--------------------|--------------------|--------------------|
--------------------|--------------------|--------------------|


  |     |     |        |        |     |        |     |     |     
--0-----------------|-----------------------|--------------------|
--------3-----------|--2h3h2----------------|-----3--2--0--2--0--|
--1--4--2--1--------|--2--------------------|--4-----------------|
--------------4--2--|--------2--0-----------|--0-----------2-----|
--------------------|--0-----------4--2--0--|--------------------|
--------------------|-----------------------|--------------------|


  |     |     |        |     |        |       |    |    |  
--------------------|-----------------0----|--2----0----5----|
-----3--2--0--2--0--|--------2-----3-------|------------2----|
--2-----------------|--2--4----------------|--2----2---------|
--4-----0-----2-----|--4-----2h4h2---------|--0--------------|
--------------------|-----------------4----|-------4----0----|
--------------------|----------------------|-----------------|


  |    |        |        |    |    |          |     |    |    
-------4h5h4-2--0-----|--------------------|------------------||
-------------------3--|--2----3----0h2h0---|------------------||
----------------------|--2---------1-------|--2--------------*||
--2-------------------|-------0----2-------|-----2-----------*||
----------------------|--0-----------------|--0-----4---------||
-------0--------4-----|--------------------|-------------5----||
Добавлено: 06.07.2012
Вам также может быть интересно:
Другие материалы по этой песне:
  • Аккорды и текст

Страница создана 06.07.2012
http://primanota.ru/jean-philippe-rameau/minuetto-i-chords.htm
Привет, Гость.
Предлагаем пройти революционный курс по гитаре.
Подарок от PrimaNota.Ru, забирай!