PrimaNota.ru - самый крупный в мире бесплатный архив песенных текстов, аккордов, табулатур и нот


Жан-Филипп Рамо - Menuet - таба, видео

Регистрация Запомнить меня
Войти через:  Facebook Google Twitter Vk Yandex Mail.ru

Жан-Филипп Рамо - Menuet - таба, видео

Печатать
Просмотров: 84
As recorded by Jean-Philippe Rameau

Music by Jean-Philippe Rameau (1683 - 1764)
Transcribed by Simon Mathias

Gtr I (D A D G B E) - 'Dropped-D'

  Q=120
 3/4
  Gtr I
  E E E E E E   E E E E E E   E E E E E E   E E E E Q
|-5-3-2-3-0-2-|-3-2-0-2---0-|-2-5-3-2-0---|-0----------|
|-------------|---------3---|-----------3-|---3-2-0----|
|-------------|-------------|-------------|---------2--|
|-----0-------|-------------|-0-----------|------------|
|---------4---|-2---4---0---|-------------|-0----------|
|-0-----------|-------------|---------0---|---------5--|
  Q   Q   Q     Q   Q   Q     H       Q     H       Q


                                            >
  E E E E E E   E E E E E E   E E E E E E   H.
|-5-3-2-3-0-2-|-3-2-0-3---0-|-2-5-3-2-0-2-|------------||
|-------------|---------3---|-------------|-3---------o||
|-------------|-------------|-----2-------|------------||
|-------------|-------------|-------------|-0----------||
|---------2---|---------0---|---------0---|-----0-----o||
|-4-----------|-2-----------|-0-----------|--------0---||
  H       Q     H       Q     Q   Q   Q     Q   Q  Q



  E E E E E E   E E E E E E   E E E E E E   E  E E E Q
|-0-----------|-------------|---0---------|-------------|
|---3-2-3-0-2-|-3-2-0-2---0-|-2---3-2-0---|-0-----------|
|-----2---1---|-----1---2---|-2---------2-|----2-1------|
|-------------|-4-------2---|-------------|-2------4-2--|
|-0-----------|-------------|---------0---|----------5--|
|-------------|-------------|-------------|-------------|
  Q   Q   Q     Q   Q   Q     H       Q     Q.       Q


                              >             <
  E E E E E E   E E E E E E   E E E E E E   Q  E E E E
|-0-----------|-------------|---0---------|------------|
|---3-2-3-0-2-|-3-2-0-2---0-|-2---3-2-0-2-|------------|
|---------4---|---------2---|-----2-------|-2--2-0-----|
|-------------|-------------|-------------|--------4-2-|
|-4-----------|-2-----------|-0-----------|-0----------|
|-------------|-------------|---------2---|------------|
  H       Q     H             Q   Q   Q     Q


  e e e e e e   e e e e e e   e e e e e e   e e e e q
|-5-3-2-3-0-2-|-3-2-0-2---0-|-2-5-3-2-0---|-0----------|
|-------------|---------3---|-----------3-|---3-2-0----|
|-------------|-------------|-------------|---------2--|
|-----0-------|-------------|-0-----------|------------|
|---------4---|-2---4---0---|-------------|-0----------|
|-0-----------|-------------|---------0---|---------5--|
  q   q   e     q   q   q     h       q     h       q


  e e e e e e   e e e e e e   e e e e e e   h.
|-5-3-2-3-0-2-|-3-2-0-3---0-|-2-5-3-2-0-2-|-----------*|
|-------------|---------3---|-------------|-3---------*|
|-------------|-------------|-----2-------|-----------*|
|-------------|-------------|-------------|-0---------*|
|---------2---|---------0---|---------0---|-----0-----*|
|-4-----------|-2-----------|-0-----------|--------0--*|
  h       q     h       q     q   q   q     q   q  q


Duration Legend
---------------
W - whole; H - half; Q - quarter; E - 8th; S - 16th; T - 32nd; X - 64th; a - acciaccatura
+ - note tied to previous; . - note dotted; .. - note double dotted
Uncapitalized letters represent notes that are staccato (1/2 duration)
Irregular groupings are notated above the duration line
Duration letters will always appear directly above the note/fret number it represents the
duration for.  Duration letters with no fret number below them represent rests.  Multi-
bar rests are notated in the form Wxn, where n is the number of bars to rest for.  Low
melody durations appear below the staff

Tablature Legend
----------------
 h   - hammer-on
 p   - pull-off
 b   - bend
 pb  - pre-bend
 r   - bend release (if no number after the r, then release immediately)
 /\  - slide into or out of (from/to "nowhere")
 s   - legato slide
 S   - shift slide
  - natural harmonic
[n]  - artificial harmonic
n(n) - tapped harmonic
 ~   - vibrato
 tr  - trill
 T   - tap
 TP  - trem. picking
 PM  - palm muting
\n/  - tremolo bar dip; n = amount to dip
 \n  - tremolo bar down
 n/  - tremolo bar up
/n\  - tremolo bar inverted dip
 =   - hold bend; also acts as connecting device for hammers/pulls
 <>  - volume swell (louder/softer)
 x   - on rhythm slash represents muted slash
 o   - on rhythm slash represents single note slash

Misc Legend
-----------
 |  - bar
||  - double bar
||o - repeat start
o|| - repeat end
*|  - double bar (ending)
 :  - bar (freetime)
 $  - Segno
 &  - Coda
Tempo markers -  = BPM(8/16=s8/s16), where s8 = swing 8ths, s16 = swing 16ths

Добавлено: 12.06.2016
Вам также может быть интересно:
Другие материалы по этой песне:
  • Аккорды и текст

Страница создана 12.06.2016
http://primanota.ru/jean-philippe-rameau/menuet-2-chords.htm
Привет, Гость.
Предлагаем пройти революционный курс по гитаре.
Подарок от PrimaNota.Ru, забирай!