PrimaNota.ru - самый крупный в мире бесплатный архив песенных текстов, аккордов, табулатур и нот


Jean-michel Jarre - Rendez-vous A Paris - таба, видео

Регистрация Запомнить меня
Войти через:  Facebook Google Twitter Vk Yandex Mail.ru

Jean-michel Jarre - Rendez-vous A Paris - таба, видео

Печатать
Просмотров: 196
Авторы музыки: Jean Michel Jarre

"RENDEZ-VOUS À PARIS" (from j.m.jarre album Metamorphoses)
 
Sharon's violin solo arrangued for guitar
 
Tabbed by KeltiK
KeltiK2001@hotmail.com
Jerez de la Frontera (Spain)
20/09/02
 
It sounds ok on my acoustic guitar but if you find any mistake,
please feel free to send me any comments.
 
h   -> hammer-on
vv  -> vibrato
||  -> repeat twice between bars
(15)-> note in brackets can be left out
 
PART ONE (3:06)
      vv        vv       vv             
E|--------------------------15-15-13-13h15----------|
B|--------10-11-10-11-13-15----------------15-13-15-|
G|----12--------------------------------------------|
D|-12-----------------------------------------------|
A|--------------------------------------------------|
E|--------------------------------------------------|
 
 | 12-13-12-------------------------------------|
 | ---------15-13-11-11-13-15-------------------|
 | ---------------------------12-12-10-10h12----|
 | ------------------------------------------12-|
 | ---------------------------------------------|
 | ---------------------------------------------|
 
PART TWO (3:18)
                                                                               

E||-----------------------------------------|
B||-----------------------------------------|
G||----12-12-14-12----------12-12-----10-10-|
D||-12-------------15-12-12-------10--------|
A||-----------------------------------------|
E||-----------------------------------------|
  
   (first time)
  |----------------------------------||--------------|
  |----------------------------15-15-||----13-13-----|
  |-----12-12-14-12--------12--------||-10-----------|
  |-12--------------15-12------------||--------------|
  |----------------------------------||--------------|
  |----------------------------------||--------------|
 
   (second time)  vv          vv             vv
E|------11-------------------------------------|
B|-(15)----15-13-15-13-11-13-15----------------|
G|------------------------------12-10-10h12----|
D|------------------------------------------12-|
A|---------------------------------------------|
E|---------------------------------------------|
 
(3:40) Repeat PART TWO and on the background another guitar play this:
 
E||-15-13-15--15-13-15-------15-13-15--15-13-15----||
B||--------------------15-13--------------------15-||
 
(3:52)
 
E|------12----------------------------------------------
B|-(15)----15-13----------------------------------------
G|----------------12--this note link with beginning of -
D|--------------------------------"PART ONE"------------
A|------------------------------------------------------
E|------------------------------------------------------
 

Best regards to my "Sevillian friends": j.luis,lola,juan,migue y angela.
CORRS FOREVER!
Someday we make a Corrs' tribute and you'll be there to support us!
Thanks. You're fantastic.
Special mention to "our" prefer singer.
We want to see you singing like an angel very soon!
["let me see your..."]

     
Добавлено: 16.10.2013
Другие материалы по этой песне:
  • Аккорды и текст

Страница создана 16.10.2013
http://primanota.ru/jean-michel-jarre/rendez-vous-a-paris-chords.htm
Привет, Гость.
Предлагаем пройти революционный курс по гитаре.
Подарок от PrimaNota.Ru, забирай!