PrimaNota.ru - самый крупный в мире бесплатный архив песенных текстов, аккордов, табулатур и нот


Janis Joplin - Try - текст песни, бас-таба, видео

Регистрация Запомнить меня
Войти через:  Facebook Google Twitter Vk Yandex Mail.ru

Janis Joplin - Try - текст песни, бас-таба, видео

Печатать
Просмотров: 248
INTRO

G|------------------------------------|
D|------------------------------------|
A|------------------------------------|
E|-/12-0-0-0--0-0---------------------|

G|-------------------------------|
D|-------------------------------|
A|-------------------------------|
E|0-0-0--0-0---------------------| (x9)


VERSE 1

G|--------------------------------------|
D|-----------------7-5-7-7--7-5---------|
A|-------------4-7-------------7-5------|
E|-0-0-3-4-5-5---------------------7-5-5|

G|-----------------------------------------------|
D|-----------------------------------------------|
A|---4-7-4------------7-4-7-7----7-3h5-----------|
E|-5-------0-0--4-5-7------------------7-5-3-0-0-|

VERSE 2

G|---------------------------------|
D|---------------------------------|
A|-------7-4-7-7--7-5-7-4-7-4------|
E|4-5-7----------------------7-5-5-|

G|-------------------------------------------------|
D|---------7-5-7-7---7-5---5-----------------------|
A|------4-7--------------7---7---------4-7-4---7-7-|
E|-5-5-5-----------------------5-5---5-------------|

G|--------------------------|
D|-------------------4------|
A|-------7-4-7-7---7---5-4--|
E|4-5-7-------------------7-|

CHORUS

G|------------------------|
Добавлено: 01.05.2012
Другие материалы по этой песне:
  • Аккорды и текст

Страница создана 27.02.2012
http://primanota.ru/janis-joplin/try-chords.htm
Привет, Гость.
Предлагаем пройти революционный курс по гитаре.
Подарок от PrimaNota.Ru, забирай!