PrimaNota.ru - самый крупный в мире бесплатный архив песенных текстов, аккордов, табулатур и нот


Janis Joplin - Oh, Sweet Mary - текст песни, таба, видео

Регистрация Запомнить меня
Войти через:  Facebook Google Twitter Vk Yandex Mail.ru

Janis Joplin - Oh, Sweet Mary - текст песни, таба, видео

Печатать
Просмотров: 118
Авторы музыки: Peter Albin, Janis Joplin
Авторы текста: Peter Albin, Janis Joplin
-----------------------------------------------------------------
OH, SWEET MARY - Big Brother and the Holding Company/Janis Joplin
-----------------------------------------------------------------
Tabbed by: Callalou
E-mail: aricjohnsen@yahoo.com

Tuning: Standard

e ------------------------------------------------------------|
B ------------------------------------------------------------|
G ------------------------------------------------------------|
D ---5-7--8-7-3-3/5~---5h7-8~--7-7/8~--10-8-7-5--7-5-3-3/5~---|
A ------------------------------------------------------------|
E ------------------------------------------------------------|


e ------------------------------------------------------------|
B ------------------------------------------------------------|
G ------------------------------------------------------------|
D ---8--5-8--5--3h5--8--5-8--5--3h5---8-7--8-7--3-3/5~--------|
A ------------------------------------------------------------|
E ------------------------------------------------------------|


e ------------------------------------------------------------|
B ------------------------------------------------------------|
G ------------------------------------------------------------|
D ---8-5-8-5-3h5--8-5-8-5-3h5---8-7-8-7-3-3/5-5~--3-3/5-5~----|
A ------------------------------------------------------------|
E ------------------------------------------------------------|


e ------------------------------------------------------------|
B ------------------------------------------------------------|
G ------------------------------------------------------------|
D ---3/5-5~--3-2-3/5~--------3/5--5~--------5--5~-------------|
A ------------------------------------------------------------|
E ------------------------------------------------------------|

                    Oh sweet mary, child of confusion


e ------------------------------------------------------------|
B ------------------------------------------------------------|
G ------------------------------------------------------------|
D ---3-------2-2---3--3/5~--------------5--5~-----------5--5~-|
A ------------------------------------------------------------|
E ------------------------------------------------------------|

She runs the hills to cry,     past the willows, or an illusion


e ------------------------------------------------------------|
B ------------------------------------------------------------|
G ------------------------------------------------------------|
D -----5---3--2---0-------------------5~~~--------------------|
A ---------------------3-3/5~-----5h7-------------------------|
E ------------------------------------------------------------|

Lord, tell me the reason why...   tell me why! Why's it all so hard?!


e ------------------------------------------------------------|
B ---12~-------13~-------------------12~---13~----------------|
G --------------------12~----11~------------------12~---------|
D ------------------------------------------------------------|
A ------------------------------------------------------------|
E ------------------------------------------------------------|

     Breathing in the air,           any - one to ca-are!


e ------------------------------------------------------------|
B ------------------------------------------------------------|
G ------------------------------------------------------------|
D ---8--5-8--5--3h5--8--5-8--5--3h5---8-7--8-7--3-3/5~--------|
A ------------------------------------------------------------|
E ------------------------------------------------------------|


e ------------------------------------------------------------|
B ------------------------------------------------------------|
G ------------------------------------------------------------|
D ---8--5-8--5--3h5--8--5-8--5--3h5---8-7-8-7-5-3-2-3/5~------|
A ------------------------------------------------------------|
E ------------------------------------------------------------|


e ------------------------------------------------------------|
B ------------------------------------------------------------|
G ------------------------------------------------------------|
D ---12-12--10-10/12~--12-12--10-10/12~---8-7--5-3-2-3/5~-----|
A ------------------------------------------------------------|
E ------------------------------------------------------------|


e ------------------------------------------------------------|
B ------------------------------------------------------------|
G ------------------------------------------------------------|
D ---12-12--10-10/12~--12-12--10-10/12~---8-7--5-3-2-3/5~-----|
A ------------------------------------------------------------|
E ------------------------------------------------------------|


e ------------------------------------------------------------|
B ------------------------------------------------------------|
G ------------------------------------------------------------|
D ---5---5---5-5-5---5---5---5-5-5---2--3-2--/2---------------|
A -----------------------------------------------5~-----------|
E ------------------------------------------------------------|


e ------------------------------------------------------------|
B ------------------------------------------------------------|
G ------------------------------------------------------------|
D ------------------------------------------------------------|
A ---5--7--8~------7--7/8~-------8--7-5-3--7-5-3--3/5~--------|
E ------------------------------------------------------------|

           Aah...     aah...        aaahh...


e ------------------------------------------------------------|
B ------------------------------------------------------------|
G ------------------------------------------------------------|
D ------------------------------------------------------------|
A ---5h7-8~----10--8~-------10-8-7-8-7-7b~--3-3/5~------------|
E ------------------------------------------------------------|


e ------------------------------------------------------------|
B ------------------------------------------------------------|
G ------------------------------------------------------------|
D ---0--2-3---2-3--2--3-2-3-----2/3-2--3--5--2--5~------------|
A ------------------------------------------------------------|
E ------------------------------------------------------------|


e ------------------------------------------------------------|
B ------------------------------------------------------------|
G ------------------------------------------------------------|
D ---5---7~-----8---10~----8--7--5-3-2-3-2/5---5-5-5-5-5-5----|
A ------------------------------------------------------------|
E ------------------------------------------------------------|


e ------------------------------------------------------------|
B ------------------------------------------------------------|
G ------------------------------------------------------------|
D ---5--5h7--8--7--5--7--8--7--5---7h8p7h8p7h8p7--5--5--5-5-5-|
A ------------------------------------------------------------|
E ------------------------------------------------------------|


e ------------------------------------------------------------|
B ------------------------------------------------------------|
G ------------------------------------------------------------|
D ---5--7--8~----5--8--10~----12--12--12--12--12--12--12--12--|
A ------------------------------------------------------------|
E ------------------------------------------------------------|


e ------------------------------------------------------------|
B ------------------------------------------------------------|
G ---12b-10~--13b-10~---10-9-9h10-10-10/12-12~--12-12-12------|
D ------------------------------------------------------------|
A ------------------------------------------------------------|
E ------------------------------------------------------------|

     Oooh!    oooohh!                        ooooh!


e ------------------------------------------------------------|
B ------------------------------------------------------------|
G ---12b-10~--13b-10~---10-9--10-9-10-10/12~--12~-12-12~------|
D ------------------------------------------------------------|
A ------------------------------------------------------------|
E ------------------------------------------------------------|

     Oooh!    oooohh!             oooooohhhh!!


e ---8h10-10-8h10-10-8h10-10-8h10-10-10-10~--7h8-8-8/10-10-10~-|
B -------------------------------------------------------------|
G -------------------------------------------------------------|
D -------------------------------------------------------------|
A -------------------------------------------------------------|
E -------------------------------------------------------------|


e ---8h10-10-8h10-10--10-8h10-10-10-8h10-10-8~--7-7-7-8h10-10~-|
B -------------------------------------------------------------|
G -------------------------------------------------------------|
D -------------------------------------------------------------|
A -------------------------------------------------------------|
E -------------------------------------------------------------|


e ------------------------------------------------------------|
B ------------------------------------------------------------|
G ------------------------------------------------------------|
D ---8--7--8~----8--7--8~----8--7~---5-3-2-3/5~---------------|
A ------------------------------------------------------------|
E ------------------------------------------------------------|


e ------------------------------------------------------------|
B ------------------------------------------------------------|
G ------------------------------------------------------------|
D ---8--7--8~----8--7--8--10--8-7-5--5h7-3-3/5~--3-3/5-5~-----|
A ------------------------------------------------------------|
E ------------------------------------------------------------|


e ------------------------------------------------------------|
B ------------------------------------------------------------|
G ------------------------------------------------------------|
D ---3/5-5~--3--2~---2---3---3/5-5~------3/5-5~---------------|
A ------------------------------------------------------------|
E ------------------------------------------------------------|

                      Oh sweet mary, in our story


e ------------------------------------------------------------|
B ------------------------------------------------------------|
G ------------------------------------------------------------|
D -------3~----2~-----3/5~-------------3~--------------3~-----|
A ------------------------------------------------------------|
E ------------------------------------------------------------|

Have we nothing left to give? Don't we all know, if we're pressed to


e ------------------------------------------------------------|
B ------------------------------------------------------------|
G ------------------------------------------------------------|
D ----2-3---2--3----3--3/5~-----------------------------------|
A ------------------------------------------------------------|
E ------------------------------------------------------------|

That that's the way we live...   tell me why! Why's it all so hard?!


e ------------------------------------------------------------|
B ---12~-------13~-------------------12~---13~----------------|
G --------------------12~----11~------------------12~\\-------|
D ------------------------------------------------------------|
A ------------------------------------------------------------|
E ------------------------------------------------------------|

    Breathing  in the air,           any - one to ca-are!


e ------------------------------------------------------------|
B ------------------------------------------------------------|
G ----------------------------------------7-------------------|
D ---5-8--5-8~--5-8--5-8~--5-8--5-8~---5-----8-7-5-3-3/5--5~--|
A ------------------------------------------------------------|
E ------------------------------------------------------------|

     Ohhh!     yeeaahh!


e ------------------------------------------------------------|
B ---8-8-8-8-10~--8-8-8-8-11~--10--11-10-6-6/8~---------------|
G ------------------------------------------------------------|
D ------------------------------------------------------------|
A ------------------------------------------------------------|
E ------------------------------------------------------------|


e ------------------------------------------------------------|
B ------------------------------------------------------------|
G ------------------------------------------------------------|
D ---5-5-5-7-7--5-5-5-8-8--8--7--5-3-2-3-3/5~--2--3--2-3/5-5~-|
A ------------------------------------------------------------|
E ------------------------------------------------------------|


e -------------------------------------------------------------|
B -------------------------------------------------------------|
G -------------------------------------------------------------|
D ---5-5-5-7-7--5-5-5-8-8--8-7--5-3-2-3-3/5~--5-8-7-5-3-2-3/5~-|
A -------------------------------------------------------------|
E -------------------------------------------------------------|


e ------------------------------------------------------------|
B ---8h10--11~----8h10--11~-------6~-------8~-----------------|
G ------------------------------------------------------------|
D ------------------------------------------------------------|
A ------------------------------------------------------------|
E ------------------------------------------------------------|


e -------------------------------------13-12--13-12--13/15-15~-|
B ---8h10--11~-8--10h11--6~-8//20--20~-------------------------|
G -------------------------------------------------------------|
D -------------------------------------------------------------|
A -------------------------------------------------------------|
E -------------------------------------------------------------|


e ---13h15-15-(x5)---------13--12~---13/15-15~--15-15---------|
B ------------------------------------------------------------|
G ------------------------------------------------------------|
D ------------------------------------------------------------|
A ------------------------------------------------------------|
E ------------------------------------------------------------|


e ------------------------------------7--8--9~----------------|
B -------------------7--8--9--10--11--------------------------|
G ---6--7--8--9--10-------------------------------------------|
D ------------------------------------------------------------|
A ------------------------------------------------------------|
E ------------------------------------------------------------|

Hop now, hop now, hop now, hop now, hop now, hop now,
Hop now, hop now, hop now, hop now, hop now, hop now, ohh, yeah!

************************************

| /   slide up
| \   slide down
| h   hammer-on
| p   pull-off
| ~   vibrato
| b   Bend

************************************
Добавлено: 22.07.2013
Другие материалы по этой песне:
  • Аккорды и текст

Страница создана 06.06.2012
http://primanota.ru/janis-joplin/oh-sweet-mary-chords.htm
Привет, Гость.
Предлагаем пройти революционный курс по гитаре.
Подарок от PrimaNota.Ru, забирай!