PrimaNota.ru - самый крупный в мире бесплатный архив песенных текстов, аккордов, табулатур и нот


Jamiroquai - Half The Man - текст песни, таба, видео

Регистрация Запомнить меня
Войти через:  Facebook Google Twitter Vk Yandex Mail.ru

Jamiroquai - Half The Man - текст песни, таба, видео

Печатать
Просмотров: 174
Авторы музыки: Jason Kay, Toby Smith

    _________________________________
   / Jamiroquai                     /  This is the funky acoustic guitar solo,
  / Half the Man (solo)            /  1:34-1:45. Love it! :D
 / The Return of the Space Cowboy /
/________________________________/



         G/A               Dmaj7
:-9/10-||-----7 --7 --7 --|-4/5 --5-----------|
:------||---8-8 --8 --8 --|-6/7 --7-7---6---5-|
:------||---7-7 --7 --7 --|-5/6 --6-6---5---4-|
:------||---------7 ------|---------7---4---3-|
:------||-----------------|-------------------|
:------||-----------------|-------------------|

 G7(13)            A7(13)
|-----------------|-----------------10-|
|---5---5-3 --3 --|-6/7---7-5---5----8-|
|---4---4-4 --4 --|-5/6---6-6---6----7-|
|---3---3-3 --3 --|-4/5---5-5---5----7-|
|-----------------|--------------------|
|-----------------|--------------------|


 G/A                   Dmaj7
|---10-10 --7 7 --4/5-|-5 -5 -----------|
|----8--8 --8 8 --6/7-|-7 -7 -6---6---5-|
|----7--7 --7 7 --5/6-|-6 -6 -5---5---4-|
|----7--7 --------6/7-|-7 -7 -4---4---3-|
|---------------------|-----------------|
|---------------------|-----------------|

 G7(13)             A11
|------------------|-----------12\-----|
|(5)---3-----5-----|-3---3-3---12\-----|
|(4)---4-----4-----|-4---4-4---12\-----|
|(3)---3-----3-----|-5---5-5-----------|
|----------------0-|(0)----------------|
|------------------|-------------------|



+--------------------------------------------------------------------------+
Jon Sebastian Frederiksen - 29th /December /10
Just mail me at Maitinin@gmail.com with questions, comments and corrections!
Добавлено: 28.04.2012
Другие материалы по этой песне:
  • Аккорды и текст

Страница создана 28.04.2012
http://primanota.ru/jamiroquai/half-the-man-chords.htm
Привет, Гость.
Предлагаем пройти революционный курс по гитаре.
Подарок от PrimaNota.Ru, забирай!