PrimaNota.ru - самый крупный в мире бесплатный архив песенных текстов, аккордов, табулатур и нот


Jamiroquai - Emergency on planet heart - бас-таба, видео

Регистрация Запомнить меня
Войти через:  Facebook Google Twitter Vk Yandex Mail.ru

Jamiroquai - Emergency on planet heart - бас-таба, видео

Печатать
Просмотров: 144


Song:Emergency on planet earth
Author:Jamiroquai

b=bend

Main riff:

G--------|--------------x----8--------5-----7-----8-----------
D--------|--------5---3---------------------------------------
A--------|---------------3/6---5-5--3---3/5---5/6-------------
E-4b-4b--|--x-1/3---1--------------------------------4b-4b----

There are some variation like this

G-----------------x----8---x---x------5-x-----7-x---8----------------
D-------5-----3----------------------------------------x----6-x---x--
A---------------x--5/6---x---5---5--3-----3/5-----6------------------
E-x-1/3---x-1-----------------------------------------x-x-4-----4b---

To have a nice effect put a lot of ghost notes durin' the song...

Chorus

G---------------------5---5---5--x---7---8---x---6---6---6----
Dx---5-----7----8---------------------------------------------
A-----------------1/3---3---3------5---6-------4---4---4------
E--3---3/5---/6----------------------------4------------------

G---------------------5---5---5--x---7---8--------------------
Dx---5-----7----8---------------------------------------------
A-----------------1/3---3---3------5---6-------4-----6--------
E--3---3/5---/6-----------------------------4-----6-----------

Play this in the solo too...
I think it will be better if you'll improvise durin' the verse
and the chorus...sometimes...

Bridge:

G------------8--7-7---
D---5---3-------7-7--- Repeat this 4 times...then get back
A---------/6---------- to the verse 
E-3---1---------------

This song is really wonderful and it's got also a nice bass part..
The whole song is slapped...so enjoy 
-niclarke-









Добавлено: 21.10.2013
Другие материалы по этой песне:
  • Аккорды и текст

Страница создана 21.10.2013
http://primanota.ru/jamiroquai/emergency-on-planet-heart-chords.htm
Привет, Гость.
Предлагаем пройти революционный курс по гитаре.
Подарок от PrimaNota.Ru, забирай!