PrimaNota.ru - самый крупный в мире бесплатный архив песенных текстов, аккордов, табулатур и нот


Jamie N Commons - The Preacher - таба, видео

Регистрация Запомнить меня
Войти через:  Facebook Google Twitter Vk Yandex Mail.ru

Jamie N Commons - The Preacher - таба, видео

Печатать
Просмотров: 645
Tabbed by: tele.kom
E-mail: telee.kom@gmail.com

Tuning: Whole step down (Mahagony session version is in standard)


Intro/Verse ("Up in the north, where the cold winds blow..")
e|--------------------------------------------------------------------------------------------------|
B|------3-----------3-----------3-----------3-----------3-----------3-----------3-----------3-------|
G|----0---0---0---0---0---0---0---0---0---0---0---0---0---0---0---0---0---0---0---0---0---0---0---0-|
D|----------0-----------0-----------0-----------0-----------0-----------------------0-----------0---|
A|--------------------------------------------------3-----------3-------1---------------------------|
E|--3-----------3-----------1-----------1-----------------------------------3-----------3-----------|


End Of Verse ("One hand on the trigger..")
e|---------------------------------------------------------------|
B|------3-----------3-----------3-----------3--------------------|
G|----0---0---0---0---0---0---0---0---0---0---0---0--------------|
D|----------0-----------------------0----------------------------|
A|--3-----------3-------3---1-----------1-------1----------------|
E|---------------------------------------------------------------|

e|---------------------------------------------------------------|
B|------3-----------3-----------3-----------3-----------3--------|
G|----0---0---0---0---0---0---0---0---0---0---0---0---0---0---0--|
D|----------0-----------0-----------------------0-----------0----|
A|--------------------------1-------3----------------------------|
E|--3-----------3-----------------------3-----------3------------|


Pre-Chorus (After 2nd verse)
e|--3--3-3-3--3--3-3-3--3--3-3-3--3--3-3-3-----------------------|
B|--3--3-3-3--3--3-3-3--3--3-3-3--3--3-3-3-----------------------|
G|--0--0-0-0--0--0-0-0--0--0-0-0--0--0-0-0-----------------------|
D|--0--0-0-0--0--0-0-0--0--0-0-0--0--0-0-0-----------------------|
A|---------------------------------------------------------------|
E|--3--3-3-3--3--3-3-3--3--3-3-3--3--3-3-3-----------------------|


Chorus ("Christ, oh Lord, what have you done..")
e|--3--3-3-3--3--3-3-3--3--3-3-3--3--3-3-3-----------------------|
B|--3--3-3-3--3--3-3-3--3--3-3-3--3--3-3-3-----------------------|
G|--2--2-2-2--2--2-2-2--2--2-2-2--2--2-2-2-----------------------|
D|--3--3-3-3--3--3-3-3--3--3-3-3--3--3-3-3-----------------------|
A|---------------------------------------------------------------|
E|---------------------------------------------------------------|

e|--3--3-3-3--3--3-3-3--3--3--3--3-3------------------------------|
B|--3--3-3-3--3--3-3-3--3--3--3--3-3------------------------------|
G|--0--0-0-0--0--0-0-0--0--0--0--0-0------------------------------|
D|--2--2-2-2--2--2-2-2--0--2--0--0-0------------------------------|
A|--3--3-3-3--3--3-3-3--1--3--------------------------------------|
E|----------------------------3--3-3------------------------------|

At end of chorus, just strum G


Lyrics:

(Verse)
G                         G/F
Up in the north where the cold winds blow
G/C          G/A#  G
Over the prairie   gold 
          G                            G/F
There's a church bell screaming on the steeple high 
G/C                G/A#  G
Gather ye children of    men 

(Verse end)
     G/C                      G/A#
With one hand on the trigger, one hand on the cross 
G                        G/A#       G/C  G
Jesus and his family are two things he's lost 

(Verse 2)
G                             G/F  
March him to the scaffold and string him up on high 
    G/C                G/A#  G
The call came out from the   crowd 
       G                       G/F
Theres blood in their eyes and blood in their hearts 
         G/C                  G/A#  G
For, the blood turning dry on his   hands 

(Verse end)
     G/C                      G/A#
With one hand on the trigger, one hand on the cross 
G                        G/A#       G/C  G
Jesus and his family are two things he's lost 

(Chorus)
Dsus4/F
Christ oh Lord what have you done 
         Cadd9               G/#A  Cadd9  G
You wont never see heaven or king--dom    come
Dsus4/F
Christ oh Lord what have you done 
         Cadd9               G/#A  Cadd9  G
You wont never see heaven or king--dom    come  


(Verse 3)
G               G/F
Listen to me my wayward flock 
   G/C                      G/#A  G
He cried with a noose round his   neck 
  G                        G/F
I spoke to the lord on the mountain top 
    G/C               G/#A  G
His bidding was all I could do 

(Chorus)
Dsus4/F                    Cadd9        
I spoke to the lord on the mountain top 
    G
His bidding was all I could do 

Dsus4/F 
Christ oh Lord your works been done 
    Cadd9             G/#A  Cadd9  G
Now show me heaven or king--dom    come 
Dsus4/F 
Christ oh Lord your works been done 
    Cadd9             G/#A  Cadd9  G
Now show me heaven or king--dom    come

(Verse end strummed)
G/C                      G/A#
One hand on the trigger, one hand on the cross 
G                        G/A#       G/C  G
Jesus and his family are two things he's lost 

http://www.jamiencommons.com/
Добавлено: 20.07.2013
Другие материалы по этой песне:
  • Аккорды и текст

Страница создана 20.07.2013
http://primanota.ru/jamie-n-commons/the-preacher-chords.htm
Привет, Гость.
Предлагаем пройти революционный курс по гитаре.
Подарок от PrimaNota.Ru, забирай!