PrimaNota.ru - самый крупный в мире бесплатный архив песенных текстов, аккордов, табулатур и нот


James Vincent Mcmorrow - Ghosts - аккорды и текст, видео

Регистрация Запомнить меня
Войти через:  Facebook Google Twitter Vk Yandex Mail.ru

James Vincent Mcmorrow - Ghosts - аккорды и текст, видео

Печатать
Просмотров: 174
Ghosts
James Vincent Mcmorrow
Capo on 2

Intro and Verses:
E|-------------------------------------------------------------------|
B|---------1-------3---3----0----------------1-------3---3---0-------|
G|---2---2---2---2----------0------0---2---2---2---2-----------0---0-|
D|-----2-------2-----2---2---------------2-------2-----2---2-----2---| 
A|-0------------------------2--------0-------------------------------|
E|-------------------------------------------------------------------|  (repeat)

[Verse 1]

    Am   Em        Am Em
The moon holds the light
        Am                   Em                   
And the moon's this spinning globe
         Am             Em
Shedding light upon the road
    Am Em      Am Em
The bird won't fly
     Am                    Em     Am             Em
And a bird without its wings is a low and tragic thing

[Chorus]

       F
We are ghosts
       C
We are ghosts amongst these hills
         G
From the trees of velvet green
       D
To the ground beneath our feet
       F
We are ghosts
       C
We are ghosts amongst these hills
         G
Pressing out along the shore
         D
Pressing out along the shore

e|-2-9-7-5-4-5-2------4-5-4---2---4-5-7-2-4-5-4---2-|
B|--------------------------5-------------------5---|

[OR]

e|-2-9-7---------------------------------------------|
B|-------10-9-10-7--- 9-10-9------9-10-12----9-10-9--|
G|--------------------------9-11----------11--------9|
D|---------------------------------------------------|
A|---------------------------------------------------|
E|---------------------------------------------------|

[Verse 2]

Am Em
The mountain song
Matters not the thoughts of thirds
Matters only to be heard
And though I'm gone
I will come again in Spring
When the harvest can begin

[Chorus]

F C G D
We are ghosts
We are ghosts amongst these hills
From the trees of velvet green
To the ground beneath our feet
We are ghosts
We are ghosts amongst these hills
Pressing out along the shore
Pressing out along the shore

[Outro]

F C G repeat 6x

Добавлено: 11.08.2015
Другие материалы по этой песне:
  • Аккорды и текст

Страница создана 11.08.2015
http://primanota.ru/james-vincent-mcmorrow/ghosts-chords.htm
Привет, Гость.
Предлагаем пройти революционный курс по гитаре.
Подарок от PrimaNota.Ru, забирай!