PrimaNota.ru - самый крупный в мире бесплатный архив песенных текстов, аккордов, табулатур и нот


James Brown - Hot - аккорды и текст, бас-таба, видео

Регистрация Запомнить меня
Войти через:  Facebook Google Twitter Vk Yandex Mail.ru

James Brown - Hot - аккорды и текст, бас-таба, видео

Печатать
Просмотров: 158
Hot
James Brown
(Bass)
 
Intro:		[G---------------------------------------------------
D--------------------------------------------------
A-------------------3------------------------------
E------1-1-1-1-1-1-1--------------------------------

Verse:		G---------------------------------------------------
D--------------------------------------------------
A--------------------------------------------------
E---1--1-1---1--1--1--1-1--1--1--1-1--1--1-1-------

G---------------------------------------------------
D--------------------------------------------------
A--------------------------------------------------
E---0--1--1--1--1-1---------------------------------

G------------3--1-----------------------------------
D--------------------------------------------------
A--1--1--1--------1--------------------------------
E---------------------------------------------------]

The run they play while they're jamming:
[G--------------1-3--5--8-10-8--13-13----------------
D---------1-3------------------------15-x-15-13-15-
A-----1-3------------------------------------------
E--1-4----------------------------------------------]
   repeat twice

the variation of the run the second time
[G--------------1-3--5--8---13-13-------------------------
D---------1-3--------------------15-x-13-13-------------
A-----1-3-----------------------------------15-13p11----
E--1-4------------------------------------------------13-]
   repeat twice

Another riff played during the verse
[G----1----------------------------------------------
D-3---3--3-1-3--3-3-1-1-3-3-1-1-3-3-1-3------------
A--------------------------------------------------
E---------------------------------------------------]

Run back into verse
[G---3-3--1-1-----------------------------------------
D------------3-3--1-1----------------------3p1------
A----------------------3-3--1-1----------------3----
E---------------------------------4-4--3-3--------1--]
Добавлено: 14.02.2014
Другие материалы по этой песне:
  • Аккорды и текст

Страница создана 08.05.2012
http://primanota.ru/james-brown/hot-chords.htm
Привет, Гость.
Предлагаем пройти революционный курс по гитаре.
Подарок от PrimaNota.Ru, забирай!