PrimaNota.ru - самый крупный в мире бесплатный архив песенных текстов, аккордов, табулатур и нот


James Brown - I Refuse To Lose - аккорды и текст, бас-таба, видео

Регистрация Запомнить меня
Войти через:  Facebook Google Twitter Vk Yandex Mail.ru

James Brown - I Refuse To Lose - аккорды и текст, бас-таба, видео

Печатать
Просмотров: 143
I Refuse To Lose
James Brown
(Bass)
 
Verse:		[G--------------------------------------
D----------------------5--------------
A--3-5-5---3-5-5---3-5----------------
E--------------------------------------

Fill:		G---5h7-5h7----------------------------
D----------5h7-5h7--5---5-7-----------
A---------------------8-----8-5-------
E--------------------------------------

Verse variation:[G--------------------------------------
D---------------------5h6-------------
A--5-8-5--5-8-5-8-5-8-----------------
E--------------------------1--1--------]
Добавлено: 20.09.2013
Другие материалы по этой песне:
  • Аккорды и текст

Страница создана 21.07.2012
http://primanota.ru/james-brown/i-refuse-to-lose-chords.htm
Привет, Гость.
Предлагаем пройти революционный курс по гитаре.
Подарок от PrimaNota.Ru, забирай!