PrimaNota.ru - самый крупный в мире бесплатный архив песенных текстов, аккордов, табулатур и нот


James Bay - Let It Go - аккорды и текст, таба, видео

Регистрация Запомнить меня
Войти через:  Facebook Google Twitter Vk Yandex Mail.ru

James Bay - Let It Go - аккорды и текст, таба, видео

Печатать
Просмотров: 1876
Авторы: Paul Barry, James Bay

Let It Go
James Bay
D-tuning, but you can play it with the regular tuning as well. 

Verse + Chorus: 

      D#                G#
|------------------------------------------------------------|
|-----8-----8-----8----/13------13-----13-----13-----13------|
|--------0-----0-----0-------0------0------0------0------0---|
|------------------------------------------------------------|
|-----6----------------/11-----------------------------------|
|------------------------------------------------------------|
      
      Cm                 B
|------------------------6------6------6---------------------|
|-----8-----8-----8---------------------------9-------8------|
|--------0-----0-----0-------0------0------0------0------0---|
|------------------------------------------------------------|
|------------------------------------------------------------|
|-----8------------------6-----------------------------------| x infinity

Pre-Chorus:
      Cm                 B
|------------------------------------------------------------|
|-----8-----8-----8------8-------8------8------8------8------|
|--------8-----8-----8-------8------8------8------8------8---|
|----10------------------8-----------------------------------|
|------------------------------------------------------------|
|------------------------------------------------------------|

      Am                 G#
|------------------------------------------------------------|
|-----8-----8-----8------8-------8------8------8------8------|
|--------8-----8-----8-------8------8------8------8------8---|
|-----7------------------6-----------------------------------|
|------------------------------------------------------------|
|------------------------------------------------------------| x2

Bridge:

|------------------------------------------------------------|
|-----9------9------9------9------9------9------9------9-----|
|--------0------0------0------0------0------0------0------0--|
|------------------------------------------------------------|
|-----8------------------8-----------------------------------|
|------------------------------------------------------------|

|------------------------------------------------------------|
|-----8------8------8------8------8------8------8------8-----|
|--------0------0------0------0------0------0------0------0--|
|------------------------------------------------------------|
|-----6------------------6-----------------------------------|
|------------------------------------------------------------|

|------------------------------------------------------------|
|----15-----15-----15-----15-----15-----15-----15-----15-----|
|--------0------0------0------0------0------0------0------0--|
|------------------------------------------------------------|
|----13------------------13----------------------------------|
|------------------------------------------------------------|

|------------------------------------------------------------|
|----16-----16-----16-----16-----16-----16-----16-----16-----|
|--------0------0------0------0------0------0------0------0--|
|------------------------------------------------------------|
|----15------------------15----------------------------------|
|------------------------------------------------------------|

|------------------------------------------------------------|
|----16-----16-----16-----16---------------------------------|
|--------0------0------0-------------------------------------|
|------------------------------------------------------------|
|----15-------------------15---------------------------------|
|------------------------------------------------------------|

From walking home and talking lows
Seeing chirps in evening clothes with you
From nervous touch and getting drunk
To staying up and waking up with you

Now we're slipping near the edge
Holding something we don't need
Oh, this delusion in our heads
Is gonna bring us to our knees

So come on, 
LET IT GO
JUST LET IT BE
Why don't you be you
And I'll be me
And everything that's broke
Leave it to the breeze
Why don't you be you
AND I'LL BE ME
AND I'LL BE ME

From throwing clothes across the floor,
To teeth and clothes and slamming door on you
If this is all we're living for
Why are we doing it, doing it, doing it anymore?

I used to recognize myself
It's funny how reflections change
When we're becoming something else,
I think it's time to walk away

So come on, 
LET IT GO
JUST LET IT BE
Why don't you be you
And I'll be me
And everything that's broke
Leave it to the breeze
Why don't you be you
AND I'LL BE ME
AND I'LL BE ME

Tryina fit your hand inside my mine,
When we know it just don't belong
There's no force on Earth
That could make me feel so wrong
Ooh oh,
Tryina push this problem up the hill
When it's too heavy to hold
I think now is the time to let it slide.

So come on, 
LET IT GO
JUST LET IT BE
Why don't you be you
And I'll be me
And everything that's broke
Leave it to the breeze
Let the ashes fall
And forget about me,
So come on, 
LET IT GO
JUST LET IT BE
Why don't you be you,
And I'll be me?!

AND I'LL BE ME
Добавлено: 01.12.2014
Другие материалы по этой песне:

Страница создана 02.06.2014
http://primanota.ru/james-bay/let-it-go-chords.htm
Привет, Гость.
Предлагаем пройти революционный курс по гитаре.
Подарок от PrimaNota.Ru, забирай!