PrimaNota.ru - самый крупный в мире бесплатный архив песенных текстов, аккордов, табулатур и нот


Jake Bugg - Simple Pleasures - аккорды и текст, таба, видео

Регистрация Запомнить меня
Войти через:  Facebook Google Twitter Vk Yandex Mail.ru

Jake Bugg - Simple Pleasures - аккорды и текст, таба, видео

Печатать
Просмотров: 478
Уроки эстрадного вокала в Санкт-Петербурге
Авторы: Jake Bugg

Simple Pleasures
Jake Bugg
            -------------------------------------------------------------------------------
                                     SIMPLE PLEASURES - Jake Bugg
            -------------------------------------------------------------------------------

Tabbed by: twitter.com/firozzer - Negative feedback most welcome. :)

I've tried to keep it as close to the studio version as possible. Completely ear-transcribed on
an acoustic guitar. And you can add a CAPO at fret 2 and transpose the chords accordingly, in 
case you prefer open chords.

Tuning: EADGBe

Intro:

Guitar 1

e|--------------------------------------------------------------------------------------------------|
B|-16b17r16-14---16b17r16-12--12h14--16b17r16-16---16b17r16p14-16b17r16p14-16b17r16p14-16b17r16-p14-|
G|--------------------------------------------------------------------------------------------------|

e|----------------------------------------------------------------|
B|-16b17r16-12---16b17r16p14-16b17r16p14-16b17r16p14-16b17r16-p14-|
G|----------------------------------------------------------------|

Guitar 2

   C#m         A    G#m    B                            C#m          G#m   F#     
e|---------------------------2-----------0-------0---2----------------------2~------4--------------|
B|-------------------------------------------4-----------5-----5------------2~---------------------|
G|-4s6-----6-4-6-6-4-4-4---4---4---4---------------------6-4h6----6-4-4-4--------------------------|
D|-4s6---6-----7-----6---6-4---------4-------------------6-6----------6---6-------4---4---3--------|
A|-2s4---------7-----6-----2-----2---------2---2---2---2-4------------6-----------4-----4-4-4------|
E|-------------5-----4------------------------------------------------4-----------------------(4)--|

Verse:

Guitar 2
   
   C#m          A            G#m          G#7
e|------------------------------------------------|
B|-5----------------------------------------------|
G|-6--6-6---6-4-6--6-6---6-4-4--4-4---4---5--5--5-|
D|-6--6---6-----7--7---7-----6--6-6-6---6-4--4--4-|    (x2 times)
A|-4------------7--7---------6--6---6-----6--6--6-|
E|--------------5------------4------------4-------|

Pre-Chorus:

Guitar 2
 
             A 
Maybe it's all a big mistake
          C#
And you live on all you take
            B       F#               C#
From the lives that have always been close

Guitar 1 Solo here:

G|---4---3---3---3---3---3--------------------------------|
D|--------------------------2-------4---3---3---3---3---3-|
A|-4---4---4---4---4---4-------h4-4---4---4---4---4---4---|

A
I've been roaming around for hours
A       B        C#    E  A
Singing all your songs of praise
Chorus:
A                     E
How on earth can I complain
                     B
How in hell can I be safe
                         G#7
From this sudden fear of change
                    C#m
This sudden fear is strange

Pre-verse:

   C#m               A       G#m   B                                          
e|------4-------4-4-----------------------2----------------------------------|
B|------5---5---5-5-5-----------5-------------5s4-------------5----7----7--9-|
G|------6---6---6-6-6-6-4-6-5h6---4--4--4---4-----4--------------------------|
D|------6---6-------6-----7-7-----6--6--4---4-------4------------------------|
A|----2-4---4-------4-----7-------6--6--2------------------4---6----7----9---|
E|2s4---------------------5-------4------------------------------------------|

     C#m         G#m         B                    C# 
e|---------------------------2--2-----------------------|
B|---5--5--------------------2--2-------------6---------|
G|---4h6---6-4-4-4---4-------3--3-3---3-------6---------|
D|-4-6---------6---6------4--4--4---4---4-----6---------|
A|-4-4---------6----------4--4--4---------4s6-4-------2-|
E|-------------4-------4--2-----------------------2s4---|

Verse:

   C#m       A   G#m             G#7             G#m
e|--------------------------------------4---------------|
B|-5-------5------------5-------------------------------|
G|-6---4h6---6-------4----------4---5-------5-----4---4-|
D|-6---6-----7---4h6--------4h6-------4---------4-4h6---|
A|-4---4-----7---6----------6---------------------6-----|
E|-----------5---4----------4-----4-------4-------4-----|

   C#m       A   G#m              G#7          
e|-----------------------------------------4---------|
B|-5-------5---------------------------------4-------|
G|-6---4h6---6-------4-----------4---5---5-----5-----|
D|-6---6-----7---4h6-4-------4h6-------4---------4---|
A|-4---4-----7---6---6-------6---------------------6-|
E|-----------5---4-----------4-----4-----------------|

Pre-Chorus:
                 A
And maybe it's all that you've done wrong
          C#
So just bite your silver tongue
           B       F#           C#
That you lied with, lied to yourself

Guitar 1 Solo here:

G|---4---3---3---3---3---3-----------------------------------|
D|----------------------------------4-4--x-3-x-3-x-3-x-3-x-3-|
A|-4---4---4---4---4---4------4s2---4-4--x-4-x-4-x-4-x-4-x-4-|

A
I've been roaming around for hours
A       B        C#    E  A
Singing all your songs of praise
Chorus:
A                     E
How on earth can I complain
                     B
How in hell can I be safe
                         G#7
From this sudden fear of change
                    C#m
This sudden fear is strange

Interlude:

Guitar 1 - A  A  E  B,  A  A  E  E (x2)

Guitar 2

e|---------------------------------------7-------------------------|
B|---5-7-5---4-5-4---4-5-4---2-4-2---5-7-----4-5-4-----------------|
G|-6-------4-------4-------3-------6-------4-----------------------|
D|-------------------------------------------------2---4---6---4-6-|

e|-------------------------------------------------|
B|---5-7-5---4-5-4---4-5-4---2-4-2---5-7-5---4-5-4-|
G|-6-------4-------4-------3-------6-------4-------|

Pre-verse:

Guitar 2

e|------------------------------------------------------------------------------------------|
B|-16b17r16p14-16b17r16p14-16b17r16p14-16b17r16-7s9-9-9-7s5-5-7s9-9-9-7s5-5-7s9-9-9-7s5-4---|
G|------------------------------------------------------------------------------------------|
D|----------------------------------------------------------------------------------------1-|
A|----------------------------------------------------------------------------------------3-|
E|------------------------------------------------------------------------------------------|

Guitar 1

  C#m          A            G#m             G#7
e|-----------------------------------------------------4-|
B|-5-----------------------------------------------------|
G|-6-----4h6p4-6-----4h6p4-----4---------4---------5-----|
D|-6-----------7-----------7-6-------4h6---4---4-----4---|
A|-4-----------7-------------6-------------------6-------|
E|-------------5-------------4---------------4-----------|

Verse:

Guitar 1

  C#m        A        G#m       G#7
e|-----------------------------------------------------------|
B|-5-------------------------------------------------4-------|
G|-6---------6---------4---------------------5---------5-----|
D|-6---------7---------6-------------4-----4---4---------4---|
A|-4---------7---------6-----------6-----------------------6-|
E|-----------5---------4---------4---------------------------|

Pre-Chorus:

Guitar 2

             A 
Maybe it's all a big mistake
          C#
And you live on all you take
            B       F#               C#
From the lives that have always been close

Guitar 1 Solo:

G|---4---3---3---3---3---3-----------------------------------|
D|----------------------------------4-4--x-3-x-3-x-3-x-3-x-3-|
A|-4---4---4---4---4---4------4s2---4-4--x-4-x-4-x-4-x-4-x-4-|

A
I've been roaming around for hours
A       B        C#    E  
Singing all your songs of 
A                             E
Standing at the edge about to fall
                          B
Faces crushed against the wall
                   A       B        C#    E
The sudden fear of singing all your songs of
A                             E
Staring into space I hear the sound
                          B
From a voice that's never found
                   G#7
The sudden fear is strange
                 A 
But maybe it's all a big mistake
          C#
And you live on all you take
            B       F#               C#
From the lives that have always been close

Guitar 1 Solo:

G|---4---3---3---3---3---3-----------------------------------|
D|----------------------------------4-4--x-3-x-3-x-3-x-3-x-3-|
A|-4---4---4---4---4---4------4s2---4-4--x-4-x-4-x-4-x-4-x-4-|

A
I've been roaming around for hours
A       B        C#    E  A
Singing all your songs of praise

Chorus:

A                     E
How on earth can I complain
                     B
How in hell can I be safe
                    G#7
This sudden fear is strange
                    C#m
This sudden fear of change

Guitar 1:

e|-------------------------------------------|
B|-7s9-9-9-7s5-5-7s9-9-9-7s5-5-7s9-9-9-7s5-4-|
G|-------------------------------------------|

***

Figured out this tab completely by ear when the album came out. The draft languished on my 
desktop since then, and I said I might as well post it here as no one had bothered to properly 
tab out each note. Re-checked each part a couple of times when I wrote the tab, so did not check the 
whole thing again before submission. Let me know if you feel something's off.

Hope it gives you an idea on how to play the various guitar parts in it. Sorry for my laziness!
Добавлено: 27.05.2014
Другие материалы по этой песне:
  • Аккорды и текст

Страница создана 02.01.2014
http://primanota.ru/jake-bugg/simple-pleasures-chords.htm
Привет, Гость.
Предлагаем пройти революционный курс по гитаре.
Подарок от PrimaNota.Ru, забирай!