PrimaNota.ru - самый крупный в мире бесплатный архив песенных текстов, аккордов, табулатур и нот


Jake Bugg - My My Hey Hey - таба, видео

Регистрация Запомнить меня
Войти через:  Facebook Google Twitter Vk Yandex Mail.ru

Jake Bugg - My My Hey Hey - таба, видео

Печатать
Просмотров: 318
Уроки эстрадного вокала в Санкт-Петербурге
My My Hey Hey - Neil Young - Jake Bugg version

I have tabbed this as played by Jake Bugg live.

Standard tuning

Chords used:

        EADGBe
Gm      3x033x
Fmaj7   x3321x
Bb      x1333x
F       1332xx
D#      x6888x

Play with slight to medium distortion

INTRO RIFF
(Leave your little finger and ring finger on the G & B strings the whole time during this riff. 
This is not tabbed exactly but its pretty close.)

E|---------------------------------------------------------------------------|
B|----3----------------------------3--3-3--3--3-3--3-------------------------|
G|----3-3--------------------------3--3-3--3--3-3--3-3-----------------------|
D|----0-0------------0-------------0--0-0--0--0-0--0-0------------0----------|
A|----------0-1-3--3---3-1-3-----------------------------0-1-3--3---3-1-3----|
E|--3-----3------------------3----3--3-3--3--3-3--3----3------------------3--|
        

Gm  Fmaj7   Gm
My  My, hey hey
Gm       Fmaj7           Gm
Rock and roll is here to stay
Bb             F       
It's better to burn out
Gm           D#
Than to fade away
Gm  Fmaj7   Gm
My  My, hey hey

E|---------------------------------------------------------------------------|
B|----3----------------------------3--3-3--3--3-3--3-------------------------|
G|----3-3--------------------------3--3-3--3--3-3--3-3-----------------------|
D|----0-0------------0-------------0--0-0--0--0-0--0-0-----------------------|
A|----------0-1-3--3---3-1-3-------------------------------------------------|
E|--3-----3------------------3----3--3-3--3--3-3--3--------------------------|


Gm              Fmaj7             Gm
It's out of the blue and into the black
Gm            Fmaj7                Gm
They give you this but you pay for that
Bb              F        Gm             D#
And once you're gone you can never come back
Gm                     Fmaj7             Gm
When you're out of the blue and into the black

E|---------------------------------------------------------------------------|
B|----3----------------------------3--3-3--3--3-3--3-------------------------|
G|----3-3--------------------------3--3-3--3--3-3--3-3-----------------------|
D|----0-0------------0-------------0--0-0--0--0-0--0-0-----------------------|
A|----------0-1-3--3---3-1-3-------------------------------------------------|
E|--3-----3------------------3----3--3-3--3--3-3--3--------------------------|

Gm          Fmaj7             Gm
The king is gone but he's not forgotten
Gm          Fmaj7             Gm
This is the story of a Johnny Rotten
Bb             F        Gm            D#
It's better to burn out than it is to rust
Gm          Fmaj7             Gm
The king is gone but he's not forgotten


E|---------------------------------------------------------------------------|
B|----3----------------------------------------------------------------------|
G|----3-3------------------------5b7---5b7-5b7-5b7r5~--5b7r5-3---------------|
D|----0-0------------0-----------------------------------------5-3-5---------|
A|----------0-1-3--3---3-1-3-------------------------------------------------|
E|--3-----3------------------3-----------------------------------------------|


E|------3------3------3------3----------8b10----10r8-6-8------------------------|
B|--3h6-3--3h6-3--3h6-3--3h6-3--6b8-8r6------------------8--6h8p6----8----------|
G|-----------------------------------------------------------------7---7--5-7---|
D|----------------------------------------------------------------------------5-|
A|------------------------------------------------------------------------------|
E|------------------------------------------------------------------------------|


E|---------------------------------------------------------------------------|
B|----3----------------------------3--3-3--3--3-3--3-------------------------|
G|----3-3--------------------------3--3-3--3--3-3--3-3-----------------------|
D|----0-0------------0-------------0--0-0--0--0-0--0-0-----------------------|
A|----------0-1-3--3---3-1-3-------------------------------------------------|
E|--3-----3------------------3----3--3-3--3--3-3--3--------------------------|


Gm  Fmaj7      Gm
Hey Hey,   My  My
Gm       Fmaj7          Gm
Rock and roll can never die
Bb                  F       Gm             D# 
There's more to the picture than meets the eye
Gm  Fmaj7      Gm
Hey Hey,   My  My


E|---------------------------------------------------------------------------|
B|---------------------------------3-----------------------------------------|
G|---------------------------------3-----------------------------------------|
D|---------------------0-----------0-----------------------------------------|
A|-----0--1--3--3---3-----3--1--3--------------------------------------------|
E|--3------------------------------3-----------------------------------------|
Добавлено: 22.11.2013
Другие материалы по этой песне:
  • Аккорды и текст

Страница создана 22.11.2013
http://primanota.ru/jake-bugg/my-my-hey-hey-chords.htm
Привет, Гость.
Предлагаем пройти революционный курс по гитаре.
Подарок от PrimaNota.Ru, забирай!